Oops, an error
Loading. Please wait.

Honor Is All We Know tab

by Rancid
496 views 27 this week
no commentswrite comment
1 2 3 4 5
3 more votes to show rating
add to favorites
×
Save as Personal and add changes to this tab that will be seen only by you. Learn more ›
×
You can save this tab as Personal to edit and correct it or add notes. All changes will be seen only by you. Learn more »
launch autoscroll
font size
0
reset
how to read this tab
guitar tuner
edit
Autoscroll
slow
fast
+/-
esc
set tempo
stop
[Intro]

   E5                                A5                E5
e|-0-0-0-0--0-0-0-0--0-0-0-0--2--4-|-0-0-0-0--0-0-0-0--0-0-0-0--2--4-|-0-0-0-0--0-0-0-0--0-0-0-0--2--4-|
B|---------------------------------|---------------------------------|---------------------------------|
G|---------------------------------|---------------------------------|---------------------------------|
D|---------------------------------|---------------------------------|---------------------------------|
A|---------------------------------|---------------------------------|---------------------------------|
E|---------------------------------|---------------------------------|---------------------------------|

    A5              B5                A5              B5                C#5             B5
e|--5---5-5---5-4---2---2-2---2-4--|--0---0-0---2-4---2---2-2---2-4--|--0---0-0---2-4---2---2-2---2-4--|
B|---------------------------------|---------------------------------|---------------------------------|
G|---------------------------------|---------------------------------|---------------------------------|
D|---------------------------------|---------------------------------|---------------------------------|
A|---------------------------------|---------------------------------|---------------------------------|
E|---------------------------------|---------------------------------|---------------------------------|
  
    E5              G#5               A5               E5
e|--0-------0----------------------|-------------------0-------------|
B|------0-------0---4---0---4---0--|--2---0---2---0------------------|
G|---------------------------------|---------------------------------|
D|---------------------------------|---------------------------------|
A|---------------------------------|---------------------------------|
E|---------------------------------|---------------------------------|


[Verse 1]

   E5                       A5          E5                                    A5          B5
e|------------------------|------------------------|------------------------|------------------------|
B|------------------------|------------------------|------------------------|------------------------|
G|------------------------|-2--2--2--2-------------|------------------------|-2--2--2--2--4--4--4--4-|
D|-2--2--2--2--2--2--2--2-|-2--2--2--2--2--2--2--2-|-2--2--2--2--2--2--2--2-|-2--2--2--2--4--4--4--4-|
A|-2--2--2--2--2--2--2--2-|-0--0--0--0--2--2--2--2-|-2--2--2--2--2--2--2--2-|-0--0--0--0--2--2--2--2-|
E|-0--0--0--0--0--0--0--0-|-------------0--0--0--0-|-0--0--0--0--0--0--0--0-|------------------------|

   A5          B5           C#5         B5           E5          G#5          A5          E5
e|------------------------|------------------------|------------------------|------------------------|
B|------------------------|------------------------|------------------------|------------------------|
G|-2--2--2--2--4--4--4--4-|-6--6--6--6--4--4--4--4-|------------------------|------------------------|
D|-2--2--2--2--4--4--4--4-|-6--6--6--6--4--4--4--4-|-2--2--2--2--6--6--6--6-|-7--7--7--7--2--2--2--2-|
A|-0--0--0--0--2--2--2--2-|-4--4--4--4--2--2--2--2-|-2--2--2--2--6--6--6--6-|-7--7--7--7--2--2--2--2-|
E|------------------------|------------------------|-0--0--0--0--4--4--4--4-|-5--5--5--5--0--0--0--0-|


[Solo 1]

   E5                        A5          E5                                      A5          B5
e|-------------------------|-------------------------|-------------------------|-------------------------|
B|-12-12-12-12-12-12-12-12-|-14-14-14-14-12-12-12-12-|-12-12-12-12-12-12-12-12-|-14-14-14-14-16-16-16-16-|
G|-------------------------|-------------------------|-------------------------|-------------------------|
D|-------------------------|-------------------------|-------------------------|-------------------------|
A|-------------------------|-------------------------|-------------------------|-------------------------|
E|-------------------------|-------------------------|-------------------------|-------------------------|

   A5          B5            C##         B5            E5          G#5           A5          E5
e|-------------------------|-------------------------|-------------------------|-------------------------|
B|-17-17-17-17-16-16-16-16-|-17-17-16-16-14-14-12-12-|-17-12-17-12-16-12-16-12-|-14-12-14-12-17----------|
G|-------------------------|-------------------------|-------------------------|-------------------------|
D|-------------------------|-------------------------|-------------------------|-------------------------|
A|-------------------------|-------------------------|-------------------------|-------------------------|
E|-------------------------|-------------------------|-------------------------|-------------------------|


[Verse 2]

   E5                       A5          E5                                    A5          B5
e|------------------------|------------------------|------------------------|------------------------|
B|------------------------|------------------------|------------------------|------------------------|
G|------------------------|-2--2--2--2-------------|------------------------|-2--2--2--2--4--4--4--4-|
D|-2--2--2--2--2--2--2--2-|-2--2--2--2--2--2--2--2-|-2--2--2--2--2--2--2--2-|-2--2--2--2--4--4--4--4-|
A|-2--2--2--2--2--2--2--2-|-0--0--0--0--2--2--2--2-|-2--2--2--2--2--2--2--2-|-0--0--0--0--2--2--2--2-|
E|-0--0--0--0--0--0--0--0-|-------------0--0--0--0-|-0--0--0--0--0--0--0--0-|------------------------|

   A5          B5           C#5         B5           E5          G#5          A5          E5
e|------------------------|------------------------|------------------------|------------------------|
B|------------------------|------------------------|------------------------|------------------------|
G|-2--2--2--2--4--4--4--4-|-6--6--6--6--4--4--4--4-|------------------------|------------------------|
D|-2--2--2--2--4--4--4--4-|-6--6--6--6--4--4--4--4-|-2--2--2--2--6--6--6--6-|-7--7--7--7--2--2--2--2-|
A|-0--0--0--0--2--2--2--2-|-4--4--4--4--2--2--2--2-|-2--2--2--2--6--6--6--6-|-7--7--7--7--2--2--2--2-|
E|------------------------|------------------------|-0--0--0--0--4--4--4--4-|-5--5--5--5--0--0--0--0-|


[Solo 2]

   E5                                 A5               E5
e|---------------------------------|---------------------------------|---------------------------------|
B|---------------------------------|---------------------------------|---------------------------------|
G|-------------6-6-7-7-6-6---------|---------------------------------|-------------6-6-7-7-6-6---------|
D|-----6-6-9-9-------------9-9-6-6-|--7--7-6--6----------------------|-----6-6-9-9-------------9-9-6-6-|
A|-7-7-----------------------------|-------------9--9--7--7--7-------|-7-7-----------------------------|
E|---------------------------------|---------------------------------|---------------------------------|

    A5             B5                 A5             B5                 C#5            B5
e|---------------------------------|---------------------------------|---------------------------------|
B|---------------------------------|---------------------------------|---------------------------------|
G|---------------------------------|---------------------------------|---------------------------------|
D|--7--7--6--6--7--7--8--8--9------|---------------------------------|---------------------------------|
A|---------------------------------|-----4-4-5-5-6-6----6-6-7-7-9-9--|-----7-7-8-8-9-9----6-6-7-7-9-9--|
E|---------------------------------|--0--------------0---------------|--9--------------0---------------|
 
    E5             G#5                A5              E5
e|---------------------------------|---------------------------------|
B|---------------------------------|---------------------------------|
G|---------------------------------|---------------------------------|
D|-----6-6-7-7-9-9-----------------|---------------------------------|
A|--7-----------------2-2-4-4-6-6--|------4--4--6--6--7--7--7--------|
E|-----------------4---------------|--0------------------------------|


[Verse 3]

   E5                       A5          E5                                    A5          B5
e|------------------------|------------------------|------------------------|------------------------|
B|------------------------|------------------------|------------------------|------------------------|
G|------------------------|-2--2--2--2-------------|------------------------|-2--2--2--2--4--4--4--4-|
D|-2--2--2--2--2--2--2--2-|-2--2--2--2--2--2--2--2-|-2--2--2--2--2--2--2--2-|-2--2--2--2--4--4--4--4-|
A|-2--2--2--2--2--2--2--2-|-0--0--0--0--2--2--2--2-|-2--2--2--2--2--2--2--2-|-0--0--0--0--2--2--2--2-|
E|-0--0--0--0--0--0--0--0-|-------------0--0--0--0-|-0--0--0--0--0--0--0--0-|------------------------|

   A5          B5           C#5         B5           E5          G#5          A5          E5
e|------------------------|------------------------|------------------------|------------------------|
B|------------------------|------------------------|------------------------|------------------------|
G|-2--2--2--2--4--4--4--4-|-6--6--6--6--4--4--4--4-|------------------------|------------------------|
D|-2--2--2--2--4--4--4--4-|-6--6--6--6--4--4--4--4-|-2--2--2--2--6--6--6--6-|-7--7--7--7--2--2--2--2-|
A|-0--0--0--0--2--2--2--2-|-4--4--4--4--2--2--2--2-|-2--2--2--2--6--6--6--6-|-7--7--7--7--2--2--2--2-|
E|------------------------|------------------------|-0--0--0--0--4--4--4--4-|-5--5--5--5--0--0--0--0-|

   E5          G#5          A5          E5
e|------------------------|------------------------|
B|------------------------|------------------------|
G|------------------------|------------------------|
D|-2--2--2--2--6--6--6--6-|-7--7--7--7--2--2--2--2-|
A|-2--2--2--2--6--6--6--6-|-7--7--7--7--2--2--2--2-|
E|-0--0--0--0--4--4--4--4-|-5--5--5--5--0--0--0--0-|


[Outro]

   E5                                A5                E5
e|-0-0-0-0--0-0-0-0--0-0-0-0--2--4-|-0-0-0-0--0-0-0-0--0-0-0-0--2--4-|-0-0-0-0--0-0-0-0--0-0-0-0--2--4-|
B|---------------------------------|---------------------------------|---------------------------------|
G|---------------------------------|---------------------------------|---------------------------------|
D|---------------------------------|---------------------------------|---------------------------------|
A|---------------------------------|---------------------------------|---------------------------------|
E|---------------------------------|---------------------------------|---------------------------------|

    A5              B5                A5              B5                C#5             B5
e|--5---5-5---5-4---2---2-2---2-4--|--0---0-0---2-4---2---2-2---2-4--|--0---0-0---2-4---2---2-2---2-4--|
B|---------------------------------|---------------------------------|---------------------------------|
G|---------------------------------|---------------------------------|---------------------------------|
D|---------------------------------|---------------------------------|---------------------------------|
A|---------------------------------|---------------------------------|---------------------------------|
E|---------------------------------|---------------------------------|---------------------------------|
  
    E5              G#5               A5               E5
e|--0-------0----------------------|-------------------0-------------|
B|------0-------0---4---0---4---0--|--2---0---2---0------------------|
G|---------------------------------|---------------------------------|
D|---------------------------------|---------------------------------|
A|---------------------------------|---------------------------------|
E|---------------------------------|---------------------------------|

            
            
Suggest correction
Creating personal tab
Creating personal tab
You can edit any tab online and save it as your Personal.

You can edit, replace or remove any tab part or add personal notes – all changes will be seen only by you.

Personal tabs can be accessed anytime from any device, even offline.
Learn more »
Give kudos to tab author, rate the tab!
1 2 3 4 5
comments
print report bad tab
guest
You may want to rate the tab now too:
select rating
Wanna post a correction for this tab? Suggest correction