Oops, an error
Loading. Please wait.
We have an official Journey To The End Of The East Bay tab made by UG professional guitarists. Check out the tab »
×
by Rancid
48,334 views 36 this week
7 commentsread comments
1 2 3 4 5
x 37
add to favorites
×
Save as Personal and add changes to this tab that will be seen only by you. Learn more ›
×
You can save this tab as Personal to edit and correct it or add notes. All changes will be seen only by you. Learn more »
launch autoscroll
font size
0
reset
guitar tuner
edit
Autoscroll
slow
fast
+/-
esc
set tempo
stop
Author
Tabbed By : n-train

[Verse]
G|--------------4---4---4------6-9-----------------------------------------------|
D|----2-3-4-5-5---5---5---5--7-----7--3------------------------------------------|
A|--3-------------------------------------0-1-2----------------------------------|
E|--------------------------------------1----------------------------------------|

G|---------------------------------------------|
D|---2-3-4-5-55555555--3------------2p0--------|
A|-3-----------------------0-1-2-3-----2p0-----|
E|-----------------------1----------------3p0--|

(Same thing except at end instead of pull-offs play)
G|-----------------------|
D|-3333--1111-0000-------|
A|-----------------3333--|
E|-----------------------|

(x2)
G|-------------------------------------|
D|-------------------------------------|
A|-3333333-----------------------------|
E|---------33333333-55555555-11111111--|

[Verse]
G|--------------4---4---4------6-9-----------------------------------------------|
D|----2-3-4-5-5---5---5---5--7-----7--3------------------------------------------|
A|--3-------------------------------------0-1-2----------------------------------|
E|--------------------------------------1----------------------------------------|

G|---------------------------------------------|
D|---2-3-4-5-55555555--3------------2p0--------|
A|-3-----------------------0-1-2-3-----2p0-----|
E|-----------------------1----------------3p0--|

(play 4 times and then chorus)
G|-------------2222---------------------------------------------------------------------|
D|----3-5-5-55------3333----------------------------------------------------------------|
A|--3-----------------------------------------------------------------------------------|
E|--------------------------------------------------------------------------------------|

(outro is just the verse)

************************************

| p  Pull-off

************************************

            
            
Suggest correction
Creating personal tab
Creating personal tab
You can edit any tab online and save it as your Personal.

You can edit, replace or remove any tab part or add personal notes – all changes will be seen only by you.

Personal tabs can be accessed anytime from any device, even offline.
Learn more »
comments
print report bad tab
7 comments total. Showing first comments.
-1 reply
Kozed 10 Jan 21, 2008 06:36 AM

sweet tab it is pretty good but i play the end of the intro like
this

--------------------------------
-----3333---2222---0000---------
--------------------------3333--
----------
----------------------

5 stars

0 reply
11lewist 51 Mar 07, 2008 12:24 PM

spot on
5 out of 5 stars

+2 reply
PunkRules13 91 May 12, 2009 06:40 AM

The bassline doesn't do the intro completely the same when it repeats later in the song - I'm going to try and get a version up now which shows this

guest
You may want to rate the tab now too:
select rating
Wanna post a correction for this tab? Suggest correction