Oops, an error
Loading. Please wait.

Last One To Die tab

version 3
version 3

Whole song

Interactive

by Rancid
6,313 views 1 this week
4 commentsread comments
1 2 3 4 5
2 more votes to show rating
add to favorites
×
Save as Personal and add changes to this tab that will be seen only by you. Learn more ›
×
You can save this tab as Personal to edit and correct it or add notes. All changes will be seen only by you. Learn more »
launch autoscroll
font size
0
reset
how to read this tab
guitar tuner
edit
Autoscroll
slow
fast
+/-
esc
set tempo
stop
-------------------------------------------------------------------------------
                             LAST ONE TO DIE - Rancid
-------------------------------------------------------------------------------
Tabbed by: Chris
Email: chris@bbzzdd.com

Tuning: Standard

Intro

e|---------------------------------------------------------------------------|
B|---1-3-1-3--3--1--0--1----3--1--0--1---------------------------------------|
G|---0 0-0-0--0--0--0--0----0--0--0--0---------------------------------------|
D|---------------------------------------------------------------------------|
A|---------------------------------------------------------------------------|
E|---------------------------------------------------------------------------|

Verse

e|---------------------------------------------------------------------------|
B|---------------------------------------------------------------------------|
G|---------5----7--------5----4----------------------------------------------|
D|----5----5----7--------5----4----5-----------------------------------------|
A|----5----3----5--------3----2----5-----------------------------------------|
E|----3----------------------------3-----------------------------------------|

Chorus

e|---------------------------------------------------------------------------|
B|---------------------------------------------------------------------------|
G|---------5----7----5-------------------------------------------------------|
D|----5----5----7----5-------------------------------------------------------|
A|----5----3----5----3-------------------------------------------------------|
E|----3----------------------------------------------------------------------|

Solo

e|---------------------------------------------------------------------------|
B|---------------------------------------------------------------------------|
G|---------------------------------------------------------------------------|
D|------5---------5-------7--7/9--9--9--7--5---------------------------------|
A|---7-------5h7-------7-----------------------------------------------------|
E|---------------------------------------------------------------------------|

e|---------------------------------------------------------------------------|
B|---------------------------------------------------------------------------|
G|---------------------------------7-----------------------------------------|
D|------5---------5-------7---7/9-----9--7--5--------------------------------|
A|---7-------5h7-------7-----------------------------------------------------|
E|---------------------------------------------------------------------------|

| /  slide up
| \  slide down
| h  hammer-on
| p  pull-off
| ~  vibrato
| +  harmonic
| x  Mute note
===============================================================================

            
            
Suggest correction
Creating personal tab
Creating personal tab
You can edit any tab online and save it as your Personal.

You can edit, replace or remove any tab part or add personal notes – all changes will be seen only by you.

Personal tabs can be accessed anytime from any device, even offline.
Learn more »
Give kudos to tab author, rate the tab!
1 2 3 4 5
comments
print report bad tab
4 comments total. Showing first comments.
0 reply
ThexFallenxRose 10 Aug 06, 2009 11:52 AM

Solid work, but the Verse is missing the:
--55-
--55--
--33-55
-----55-
-----33-

And the solo's okay, but I prefer version two's

0 reply
ThexFallenxRose 10 Aug 06, 2009 11:55 AM

I screwed up my correction, but you get the idea :P

0 reply
bbzzdd 73 Jun 06, 2010 11:55 AM

Yeah missed that when tabbing.

guest
Wanna post a correction for this tab? Suggest correction