Oops, an error
Loading. Please wait.

Last One To Die tab

version 4
version 4

Whole song

Interactive

by Rancid
11,283 views 6 this week
4 commentsread comments
1 2 3 4 5
x 5
add to favorites
×
Save as Personal and add changes to this tab that will be seen only by you. Learn more ›
×
You can save this tab as Personal to edit and correct it or add notes. All changes will be seen only by you. Learn more »
launch autoscroll
font size
0
reset
how to read this tab
guitar tuner
edit
Autoscroll
slow
fast
+/-
esc
set tempo
stop
Author
Song: Last One To Die
Band: Rancid
Album: Let The Dominoes Fall

Tuning: Standard EADGBe

. = palm mute
h = hammer on
/ = slide up
~ = let ring


Intro

Guitar 1
E|-------|
B|-0-1-0-|
G|-0-0-0-|
D|-------|
A|-------|
E|-------|

Guitar 2
E|-------|
B|-------|
G|-------|
D|-------|
A|-------|
E|-------|

Guitar 1
E|-----------------|-----------------|-----------------|-----------------|2x
B|-3-3-3-3-3-5-3-3-|-1-1-1-1-1-3-1-1-|-0-0-0-0-0-0-1-0-|-1-1-1-1-1-0-1-0-|
G|-0-0-0-0-0-0-0-0-|-0-0-0-0-0-0-0-0-|-0-0-0-0-0-0-0-0-|-0-0-0-0-0-0-0-0-|
D|-----------------|-----------------|-----------------|-----------------|
A|-----------------|-----------------|-----------------|-----------------|
E|-----------------|-----------------|-----------------|-----------------|

Guitar 2
E|-----------------|-----------------|-----------------|-----------------|2x
B|-----------------|-----------------|-----------------|-----------------|
G|-7-7-7-7-7-7-7-7-|-5-5-5-5-5-5-5-5-|-----------------|-5-5-5-5-5-5-5-5-|
D|-7-7-7-7-7-7-7-7-|-5-5-5-5-5-5-5-5-|-5-5-5-5-5-5-5-5-|-5-5-5-5-5-5-5-5-|
A|-5-5-5-5-5-5-5-5-|-3-3-3-3-3-3-3-3-|-5-5-5-5-5-5-5-5-|-3-3-3-3-3-3-3-3-|
E|-----------------|-----------------|-3-3-3-3-3-3-3-3-|-----------------|


Verse 1

Everybody said we gotta take a chance and tell them what the hell went wrong.

We only listened to the words that we sang, now a million are singing along.

Guitar 1
E|-----------------|-----------------|-----------------|-----------------|2x
B|-----------------|-----------------|-----------------|-----------------|
G|-----------------|-----------------|-----------------|-----------------|
D|-----------------|-5-5-5-5-5-5-5-5-|-7-7-7-7-7-7-7-7-|---5-5-------5-5-|
A|-5---5-5-5-5-5-5-|-3-3-3-3-3-3-3-3-|-5-5-5-5-5-5-5-5-|---3-3-------2-2-|
E|-3---3-3-3-3-3-3-|-----------------|-----------------|-----------------|

Guitar 2
E|-----------------|-----------------|-----------------|-----------------|2x
B|-----------------|-----------------|-----------------|-----------------|
G|-----------------|-----------------|-----------------|-----------------|
D|-----------------|-5-5-5-5-5-5-5-5-|-7-7-7-7-7-7-7-7-|---5-5-------5-5-|
A|-5---5-5-5-5-5-5-|-3-3-3-3-3-3-3-3-|-5-5-5-5-5-5-5-5-|---3-3-------2-2-|
E|-3---3-3-3-3-3-3-|-----------------|-----------------|-----------------|
       . . . . . .   . . . . . . . .   . . . . . . . .

Chorus

Last Ooooooooooooooooooooooooooooooooooooooooooooooooooone. Last one to die.
     We got it right. You got it wrong. We're still around.

Last Ooooooooooooooooooooooooooooooooooooooooooooooooooone. Last one to die.
     We're goin' up. You're goin' down. We're still around.

Both Guitars 1 & 2
E|-----------------|-----------------|-----------------|-----------------|2x
B|-----------------|-----------------|-----------------|-----------------|
G|-----------------|-5-5-5-5-5-5-5-5-|-7-7-7-7-7-7-7-7-|-5-5-5-5-5-5-5-5-|
D|-5-5-5-5-5-5-5-5-|-5-5-5-5-5-5-5-5-|-7-7-7-7-7-7-7-7-|-5-5-5-5-5-5-5-5-|
A|-5-5-5-5-5-5-5-5-|-3-3-3-3-3-3-3-3-|-5-5-5-5-5-5-5-5-|-3-3-3-3-3-3-3-3-|
E|-3-3-3-3-3-3-3-3-|-----------------|-----------------|-----------------|


Verse 2 (Guitar 1 sounds a bit more quiet than in the first verse but slowly builds up 
on the repeat)

The ones that counted us out regret that they picked a fight.

We sit on top of the world and we prove it here every night.

Guitar 1
E|-----------------|-----------------|-----------------|-----------------|2x
B|-----------------|-----------------|-----------------|-----------------|
G|-----------------|-----------------|-----------------|-----------------|
D|-----------------|-5-5-5-5-5-5-5-5-|-7-7-7-7-7-7-7-7-|---5-5-------5-5-|
A|-5---5-5-5-5-5-5-|-3-3-3-3-3-3-3-3-|-5-5-5-5-5-5-5-5-|---3-3-------2-2-|
E|-3---3-3-3-3-3-3-|-----------------|-----------------|-----------------|

Guitar 2
E|-----------------|-----------------|-----------------|-----------------|2x
B|-----------------|-----------------|-----------------|-----------------|
G|-----------------|-----------------|-----------------|-----------------|
D|-----------------|-5-5-5-5-5-5-5-5-|-7-7-7-7-7-7-7-7-|---5-5-------5-5-|
A|-5---5-5-5-5-5-5-|-3-3-3-3-3-3-3-3-|-5-5-5-5-5-5-5-5-|---3-3-------2-2-|
E|-3---3-3-3-3-3-3-|-----------------|-----------------|-----------------|
       . . . . . .   . . . . . . . .   . . . . . . . .


Chorus

Last Ooooooooooooooooooooooooooooooooooooooooooooooooooone. Last one to die.
     We got it right. You got it wrong. We're still around.

Last Ooooooooooooooooooooooooooooooooooooooooooooooooooone. Last one to die.
     We're goin' up. You're goin' down. We're still around.

Both Guitars 1 & 2
E|-----------------|-----------------|-----------------|-----------------|2x
B|-----------------|-----------------|-----------------|-----------------|
G|-----------------|-5-5-5-5-5-5-5-5-|-7-7-7-7-7-7-7-7-|-5-5-5-5-5-5-5-5-|
D|-5-5-5-5-5-5-5-5-|-5-5-5-5-5-5-5-5-|-7-7-7-7-7-7-7-7-|-5-5-5-5-5-5-5-5-|
A|-5-5-5-5-5-5-5-5-|-3-3-3-3-3-3-3-3-|-5-5-5-5-5-5-5-5-|-3-3-3-3-3-3-3-3-|
E|-3-3-3-3-3-3-3-3-|-----------------|-----------------|-----------------|


Bridge

Guitar 1
E|-----------------|-----------------|-----------------|-----------------|2x
B|-3-3-3-3-3-5-3-3-|-1-1-1-1-1-3-1-1-|-0-0-0-0-0-0-1-0-|-1-1-1-1-1-0-1-0-|
G|-0-0-0-0-0-0-0-0-|-0-0-0-0-0-0-0-0-|-0-0-0-0-0-0-0-0-|-0-0-0-0-0-0-0-0-|
D|-----------------|-----------------|-----------------|-----------------|
A|-----------------|-----------------|-----------------|-----------------|
E|-----------------|-----------------|-----------------|-----------------|

Guitar 2
E|-----------------|-----------------|-----------------|-----------------|2x
B|-----------------|-----------------|-----------------|-----------------|
G|-7-7-7-7-7-7-7-7-|-5-5-5-5-5-5-5-5-|-----------------|-5-5-5-5-5-5-5-5-|
D|-7-7-7-7-7-7-7-7-|-5-5-5-5-5-5-5-5-|-5-5-5-5-5-5-5-5-|-5-5-5-5-5-5-5-5-|
A|-5-5-5-5-5-5-5-5-|-3-3-3-3-3-3-3-3-|-5-5-5-5-5-5-5-5-|-3-3-3-3-3-3-3-3-|
E|-----------------|-----------------|-3-3-3-3-3-3-3-3-|-----------------|


Solo

Guitar 1
E|-----------------|-----------------|-----------------|-----------------|
B|-----------------|-----------------|-----------------|-----------------|
G|-----------------|-----------------|-----------------|-----------------|
D|-----5~----------|-----5~----------|-----7~----------|-7/9--9--9--7--5-|
A|-5---------------|-5h7-------------|-5---------------|-----------------|
E|-----------------|-----------------|-----------------|-----------------|

Guitar 2
E|-----------------|-----------------|-----------------|-----------------|
B|-----------------|-----------------|-----------------|-----------------|
G|-----------------|-----------------|-----------------|-----------------|
D|-----------------|-5-5-5-5-5-5-5-5-|-7-7-7-7-7-7-7-7-|-5-5-5-5-5-5-5-5-|
A|-5---5-5-5-5-5-5-|-3-3-3-3-3-3-3-3-|-5-5-5-5-5-5-5-5-|-3-3-3-3-3-3-3-3-|
E|-3---3-3-3-3-3-3-|-----------------|-----------------|-----------------|
       . . . . . .   . . . . . . . .   . . . . . . . .   . . . . . . . .

Guitar 1
E|-----------------|-----------------|-----------------|-----------------|
B|-----------------|-----------------|-----------------|-----------------|
G|-----------------|-----------------|-----------------|------7----------|
D|-----5~----------|-----5--5~-------|-----7~----------|-7/9-----9--7--5-|
A|-5---------------|-5h7-------------|-5---------------|-----------------|
E|-----------------|-----------------|-----------------|-----------------|

Guitar 2
E|-----------------|-----------------|-----------------|-----------------|
B|-----------------|-----------------|-----------------|-----------------|
G|-----------------|-----------------|-----------------|-----------------|
D|-----------------|-5-5-5-5-5-5-5-5-|-7-7-7-7-7-7-7-7-|-5-5-5-5-5-5-5-5-|
A|-5---5-5-5-5-5-5-|-3-3-3-3-3-3-3-3-|-5-5-5-5-5-5-5-5-|-3-3-3-3-3-3-3-3-|
E|-3---3-3-3-3-3-3-|-----------------|-----------------|-----------------|
       . . . . . .   . . . . . . . .   . . . . . . . .   . . . . . . . .


Verse 3

Through the storms and the gigs and the good and the bad there aint no doubt.

Guitar 1
E|-----------------|-----------------|-----------------|-----------------|
B|-----------------|-----------------|-----------------|-----------------|
G|-----------------|-----------------|-----------------|-----------------|
D|-(5)~------------|-----------------|-----------------|-----------------|
A|-----------------|-----------------|-----------------|-----------------|
E|-----------------|-----------------|-----------------|-----------------|


Guitar 2
E|-----------------|-----------------|-----------------|-----------------|
B|-----------------|-----------------|-----------------|-----------------|
G|-----------------|-----------------|-----------------|-----------------|
D|-----------------|-5-5-5-5-5-5-5-5-|-7-7-7-7-7-7-7-7-|-5-5-5-5-5-5-5-5-|
A|-5---5-5-5-5-5-5-|-3-3-3-3-3-3-3-3-|-5-5-5-5-5-5-5-5-|-3-3-3-3-3-3-3-3-|
E|-3---3-3-3-3-3-3-|-----------------|-----------------|-----------------|
       . . . . . .   . . . . . . . .   . . . . . . . .   . . . . . . . .

We knew from the very first show what it was all about.

Guitar 1
E|-----------------|-----------------|-----------------|-----------------|
B|-----------------|-----------------|-----------------|-----------------|
G|-----------------|-----------------|-----------------|-----------------|
D|-----------------|-5-5-5-5-5-5-5-5-|-7-7-7-7-7-7-7-7-|-----------------|
A|-5---5-5-5-5-5-5-|-3-3-3-3-3-3-3-3-|-5-5-5-5-5-5-5-5-|-///////////////-|
E|-3---3-3-3-3-3-3-|-----------------|-----------------|-///////////////-|
       . . . . . .   . . . . . . . .   . . . . . . . .     pick scratch

Guitar 2
E|-----------------|-----------------|-----------------|-----------------|
B|-----------------|-----------------|-----------------|-----------------|
G|-----------------|-----------------|-----------------|-----------------|
D|-----------------|-5-5-5-5-5-5-5-5-|-7-7-7-7-7-7-7-7-|-----------------|
A|-5---5-5-5-5-5-5-|-3-3-3-3-3-3-3-3-|-5-5-5-5-5-5-5-5-|-///////////////-|
E|-3---3-3-3-3-3-3-|-----------------|-----------------|-///////////////-|
       . . . . . .   . . . . . . . .   . . . . . . . .     pick scratch


Chorus

Last Ooooooooooooooooooooooooooooooooooooooooooooooooooone. Last one to die.
     We got it right. You got it wrong. We're still around.

Last Ooooooooooooooooooooooooooooooooooooooooooooooooooone. Last one to dii
     We're goin' up. You're goin' down. We're still around.

Both Guitars 1 & 2
E|-----------------|-----------------|-----------------|-----------------|2x
B|-----------------|-----------------|-----------------|-----------------|
G|-----------------|-5-5-5-5-5-5-5-5-|-7-7-7-7-7-7-7-7-|-5-5-5-5-5-5-5-5-|
D|-5-5-5-5-5-5-5-5-|-5-5-5-5-5-5-5-5-|-7-7-7-7-7-7-7-7-|-5-5-5-5-5-5-5-5-|
A|-5-5-5-5-5-5-5-5-|-3-3-3-3-3-3-3-3-|-5-5-5-5-5-5-5-5-|-3-3-3-3-3-3-3-3-|
E|-3-3-3-3-3-3-3-3-|-----------------|-----------------|-----------------|


Outro

(Lyrics continued from previous chorus)
iiiiiiiiiiiiiiiiiiiiiiiiiiiiiiiiiiiiiiiiiiiiiiiiiiiie. Last one to dii

iiiiiiiiiiiiiiiiiiiiiiiiiiiiiiiiiiiiiiiiiiiiiiiiiiiie. Last one to dii

iiiiiiiiiiiiiiiiiiiiiiiiiiiiiiiiiiiiiiiiiiiiiiiiiiiie. Last one to dii
C'mon.               C'mon.             C'mon.

iiiiiiiiiiiiiiiiiiiiiiiiiiiiiiiiiiiiiiiiiiiiiiiiiiiie.
C'mon.               C'mon.             C'mon.

Guitar 1
E|-----------------|-----------------|-----------------|-----------------|4x
B|-3-3-3-3-3-5-3-3-|-1-1-1-1-1-3-1-1-|-0-0-0-0-0-0-1-0-|-1-1-1-1-1-0-1-0-|
G|-0-0-0-0-0-0-0-0-|-0-0-0-0-0-0-0-0-|-0-0-0-0-0-0-0-0-|-0-0-0-0-0-0-0-0-|
D|-----------------|-----------------|-----------------|-----------------|
A|-----------------|-----------------|-----------------|-----------------|
E|-----------------|-----------------|-----------------|-----------------|

Guitar 2
E|-----------------|-----------------|-----------------|-----------------|4x
B|-----------------|-----------------|-----------------|-----------------|
G|-7-7-7-7-7-7-7-7-|-5-5-5-5-5-5-5-5-|-----------------|-5-5-5-5-5-5-5-5-|
D|-7-7-7-7-7-7-7-7-|-5-5-5-5-5-5-5-5-|-5-5-5-5-5-5-5-5-|-5-5-5-5-5-5-5-5-|
A|-5-5-5-5-5-5-5-5-|-3-3-3-3-3-3-3-3-|-5-5-5-5-5-5-5-5-|-3-3-3-3-3-3-3-3-|
E|-----------------|-----------------|-3-3-3-3-3-3-3-3-|-----------------|

Guitar 1
E|---|
B|---|
G|---|
D|-5-|
A|-5-|
E|-3-|

Guitar 2
E|---|
B|---|
G|---|
D|-5-|
A|-5-|
E|-3-|

That's the end.
I think everything is correct. It sounds correct to me.

            
            
Suggest correction
Creating personal tab
Creating personal tab
You can edit any tab online and save it as your Personal.

You can edit, replace or remove any tab part or add personal notes – all changes will be seen only by you.

Personal tabs can be accessed anytime from any device, even offline.
Learn more »
comments
print report bad tab
4 comments total. Showing first comments.
0 reply
afropunkx 92 Jul 16, 2009 06:38 AM

looks good pretty much exactly how i play it

0 reply
Pricer 10 Sep 19, 2009 04:35 AM

Great tab. its the best one!!!

5* from me!

0 reply
hywer 10 May 27, 2010 04:26 AM

nice one. 5 stars

guest
You may want to rate the tab now too:
select rating
Wanna post a correction for this tab? Suggest correction