Oops, an error
Loading. Please wait.
We have an official Time Bomb tab made by UG professional guitarists. Check out the tab »
×
by Rancid
24,280 views 57 this week
no commentswrite comment
1 2 3 4 5
2 more votes to show rating
add to favorites
×
Save as Personal and add changes to this tab that will be seen only by you. Learn more ›
×
You can save this tab as Personal to edit and correct it or add notes. All changes will be seen only by you. Learn more »
launch autoscroll
font size
0
reset
how to read this tab
guitar tuner
backing track
0:00
0:00
edit
Autoscroll
slow
fast
+/-
esc
set tempo
stop
Author
Unregistered
Tuning: Standard

[Intro]
e|-2-2-2-2/0-0-0-2-2-2-2/----------------------------------------------------|
B|-3-3-3-3/0-0-0-3-3-3-3/9-9-9-----------------------------------------------|
G|-4-4-4-4/1-1-1-4-4-4-4/9-9-9-----------------------------------------------|
D|-4-4-4-4/2-2-2-4-4-4-4/9-9-9---let chords ring out-------------------------|
A|-2-2-2-2/2-2-2-2-2-2-2/9-9-9-----------------------------------------------|
E|---------0-0-0---------7-7-7-----------------------------------------------|

[Verse]
e|-x---2---x---2---x---2---x---2---x---4---x---4---x---4---x---4-------------|
B|-x---3---x---3---x---3---x---3---x---5---x---5---x---5---x---5-------------|
G|-x---4---x---4---x---4---x---4---x---4---x---4---x---4---x---4-------------|
D|-x---4---x---4---x---4---x---4---x-------x-------x-------x-----------------|
A|---------------------------------------------------------------------------|
E|---------------------------------------------------------------------------|

e|-x---2---x---2---x---2---x---2---x---4---x---4---x---4---x---4-------------|
B|-x---3---x---3---x---3---x---3---x---5---x---5---x---5---x---5-------------|
G|-x---4---x---4---x---4---x---4---x---4---x---4---x---4---x---4-------------|
D|-x---4---x---4---x---4---x---4---x-------x-------x-------x-----------------|
A|---------------------------------------------------------------------------|
E|---------------------------------------------------------------------------|

e|-x---2---x---2---x---2---x---2---x---4---x---4---x---4---x---4-------------|
B|-x---3---x---3---x---3---x---3---x---5---x---5---x---5---x---5-------------|
G|-x---4---x---4---x---4---x---4---x---4---x---4---x---4---x---4-------------|
D|-x---4---x---4---x---4---x---4---x-------x-------x-------x-----------------|
A|---------------------------------------------------------------------------|
E|---------------------------------------------------------------------------|

e|-x---2---x---2---x---2---x---2--x------------------------------------------|
B|-x---3---x---3---x---3---x---3--x------------------------------------------|
G|-x---4---x---4---x---4---x---4--x------------------------------------------|
D|-x---4---x---4---x---4---x---4--x------------------------------------------|
A|---------------------------------------------------------------------------|
E|---------------------------------------------------------------------------|

[Chorus]
e|-x---5---x---5---x---5---x---5-----------------------x-------x-------x-----|
B|-x---5---x---5---x---5---x---5---7---x---7---x---7---x---7---x---9---x---9-|
G|-x---6---x---6---x---6---x---6---7---x---7---x---7---x---7---x---9---x---9-|
D|-x---7---x---7---x---7---x---7---7---x---7---x---7---x---7---x---9---x---9-|
A|---------------------------------------------------------------------------|
E|---------------------------------------------------------------------------|

e|--x-------x-------x-------x-------x-------x--------------------------------|
B|--x---9---x---9---x---7---x---7---x---7---x---7----------------------------|
G|--x---9---x---9---x---7---x---7---x---7---x---7----------------------------|
D|--x---9---x---9---x---7---x---7---x---7---x---7----------------------------|
A|---------------------------------------------------------------------------|
E|---------------------------------------------------------------------------|

e|-x---5---x---5---x---5---x---5-----------------------x------ x-------x-----|
B|-x---5---x---5---x---5---x---5---7---x---7---x---7---x---7---x---9---x---9-|
G|-x---6---x---6---x---6---x---6---7---x---7---x---7---x---7---x---9---x---9-|
D|-x---7---x---7---x---7---x---7---7---x---7---x---7---x---7---x---9---x---9-|
A|---------------------------------------------------------------------------|
E|---------------------------------------------------------------------------|

e|--x-------x-------x-------x-------x-------x--------------------------------|
B|--x---9---x---9---x---7---x---7---x---7---x---7----------------------------|
G|--x---9---x---9---x---7---x---7---x---7---x---7----------------------------|
D|--x---9---x---9---x---7---x---7---x---7---x---7----------------------------|
A|---------------------------------------------------------------------------|
E|---------------------------------------------------------------------------|

e|-0---0-0-0-0-0-0-0-0-0-0-0-0-0---------------------------------------------|
B|-0---0-0-0-0-0-0-0-0-0-0-0-0-0---------------------------------------------|
G|-1---1-1-1-1-1-1-1-1-1-1-1-1-1---------------------------------------------|
D|-2---2-2-2-2-2-2-2-2-2-2-2-2-2---------------------------------------------|
A|-2---2-2-2-2-2-2-2-2-2-2-2-2-2---------------------------------------------|
E|-0---0-0-0-0-0-0-0-0-0-0-0-0-0---------------------------------------------|

[Verse]
e|-x---2---x---2---x---2---x---2---x---4---x---4---x---4---x---4-------------|
B|-x---3---x---3---x---3---x---3---x---5---x---5---x---5---x---5-------------|
G|-x---4---x---4---x---4---x---4---x---4---x---4---x---4---x---4-------------|
D|-x---4---x---4---x---4---x---4---x-------x-------x-------x-----------------|
A|---------------------------------------------------------------------------|
E|---------------------------------------------------------------------------|

e|-x---2---x---2---x---2---x---2---x---4---x---4---x---4---x---4-------------|
B|-x---3---x---3---x---3---x---3---x---5---x---5---x---5---x---5-------------|
G|-x---4---x---4---x---4---x---4---x---4---x---4---x---4---x---4-------------|
D|-x---4---x---4---x---4---x---4---x-------x-------x-------x-----------------|
A|---------------------------------------------------------------------------|
E|---------------------------------------------------------------------------|

e|-x---2---x---2---x---2---x---2---x---4---x---4---x---4---x---4-------------|
B|-x---3---x---3---x---3---x---3---x---5---x---5---x---5---x---5-------------|
G|-x---4---x---4---x---4---x---4---x---4---x---4---x---4---x---4-------------|
D|-x---4---x---4---x---4---x---4---x-------x-------x-------x-----------------|
A|---------------------------------------------------------------------------|
E|---------------------------------------------------------------------------|

e|-x---2---x---2---x---2---x---2--x------------------------------------------|
B|-x---3---x---3---x---3---x---3--x------------------------------------------|
G|-x---4---x---4---x---4---x---4--x------------------------------------------|
D|-x---4---x---4---x---4---x---4--x------------------------------------------|
A|---------------------------------------------------------------------------|
E|---------------------------------------------------------------------------|

[Chorus]
e|-x---5---x---5---x---5---x---5-----------------------x-------x-------x-----|
B|-x---5---x---5---x---5---x---5---7---x---7---x---7---x---7---x---9---x---9-|
G|-x---6---x---6---x---6---x---6---7---x---7---x---7---x---7---x---9---x---9-|
D|-x---7---x---7---x---7---x---7---7---x---7---x---7---x---7---x---9---x---9-|
A|---------------------------------------------------------------------------|
E|---------------------------------------------------------------------------|

e|--x-------x-------x-------x-------x-------x--------------------------------|
B|--x---9---x---9---x---7---x---7---x---7---x---7----------------------------|
G|--x---9---x---9---x---7---x---7---x---7---x---7----------------------------|
D|--x---9---x---9---x---7---x---7---x---7---x---7----------------------------|
A|---------------------------------------------------------------------------|
E|---------------------------------------------------------------------------|

e|-x---5---x---5---x---5---x---5-----------------------x------ x-------x-----|
B|-x---5---x---5---x---5---x---5---7---x---7---x---7---x---7---x---9---x---9-|
G|-x---6---x---6---x---6---x---6---7---x---7---x---7---x---7---x---9---x---9-|
D|-x---7---x---7---x---7---x---7---7---x---7---x---7---x---7---x---9---x---9-|
A|---------------------------------------------------------------------------|
E|---------------------------------------------------------------------------|

e|--x-------x-------x-------x-------x-------x--------------------------------|
B|--x---9---x---9---x---7---x---7---x---7---x---7----------------------------|
G|--x---9---x---9---x---7---x---7---x---7---x---7----------------------------|
D|--x---9---x---9---x---7---x---7---x---7---x---7----------------------------|
A|---------------------------------------------------------------------------|
E|---------------------------------------------------------------------------|

e|-0---0-0-0-0-0-0-0-0-0-0-0-0-0---------------------------------------------|
B|-0---0-0-0-0-0-0-0-0-0-0-0-0-0---------------------------------------------|
G|-1---1-1-1-1-1-1-1-1-1-1-1-1-1---------------------------------------------|
D|-2---2-2-2-2-2-2-2-2-2-2-2-2-2---------------------------------------------|
A|-2---2-2-2-2-2-2-2-2-2-2-2-2-2---------------------------------------------|
E|-0---0-0-0-0-0-0-0-0-0-0-0-0-0---------------------------------------------|

[Verse]
e|-x---2---x---2---x---2---x---2---x---4---x---4---x---4---x---4-------------|
B|-x---3---x---3---x---3---x---3---x---5---x---5---x---5---x---5-------------|
G|-x---4---x---4---x---4---x---4---x---4---x---4---x---4---x---4-------------|
D|-x---4---x---4---x---4---x---4---x-------x-------x-------x-----------------|
A|---------------------------------------------------------------------------|
E|---------------------------------------------------------------------------|

e|-x---2---x---2---x---2---x---2---x---4---x---4---x---4---x---4-------------|
B|-x---3---x---3---x---3---x---3---x---5---x---5---x---5---x---5-------------|
G|-x---4---x---4---x---4---x---4---x---4---x---4---x---4---x---4-------------|
D|-x---4---x---4---x---4---x---4---x-------x-------x-------x-----------------|
A|---------------------------------------------------------------------------|
E|---------------------------------------------------------------------------|

e|-x---2---x---2---x---2---x---2---x---4---x---4---x---4---x---4-------------|
B|-x---3---x---3---x---3---x---3---x---5---x---5---x---5---x---5-------------|
G|-x---4---x---4---x---4---x---4---x---4---x---4---x---4---x---4-------------|
D|-x---4---x---4---x---4---x---4---x-------x-------x-------x-----------------|
A|---------------------------------------------------------------------------|
E|---------------------------------------------------------------------------|

e|-x---2---x---2---x---2---x---2--x------------------------------------------|
B|-x---3---x---3---x---3---x---3--x------------------------------------------|
G|-x---4---x---4---x---4---x---4--x------------------------------------------|
D|-x---4---x---4---x---4---x---4--x------------------------------------------|
A|---------------------------------------------------------------------------|
E|---------------------------------------------------------------------------|

[Chorus]
e|-x---5---x---5---x---5---x---5-----------------------x-------x-------x-----|
B|-x---5---x---5---x---5---x---5---7---x---7---x---7---x---7---x---9---x---9-|
G|-x---6---x---6---x---6---x---6---7---x---7---x---7---x---7---x---9---x---9-|
D|-x---7---x---7---x---7---x---7---7---x---7---x---7---x---7---x---9---x---9-|
A|---------------------------------------------------------------------------|
E|---------------------------------------------------------------------------|

e|--x-------x-------x-------x-------x-------x--------------------------------|
B|--x---9---x---9---x---7---x---7---x---7---x---7----------------------------|
G|--x---9---x---9---x---7---x---7---x---7---x---7----------------------------|
D|--x---9---x---9---x---7---x---7---x---7---x---7----------------------------|
A|---------------------------------------------------------------------------|
E|---------------------------------------------------------------------------|

e|-x---5---x---5---x---5---x---5-----------------------x------ x-------x-----|
B|-x---5---x---5---x---5---x---5---7---x---7---x---7---x---7---x---9---x---9-|
G|-x---6---x---6---x---6---x---6---7---x---7---x---7---x---7---x---9---x---9-|
D|-x---7---x---7---x---7---x---7---7---x---7---x---7---x---7---x---9---x---9-|
A|---------------------------------------------------------------------------|
E|---------------------------------------------------------------------------|

e|--x-------x-------x-------x-------x-------x--------------------------------|
B|--x---9---x---9---x---7---x---7---x---7---x---7----------------------------|
G|--x---9---x---9---x---7---x---7---x---7---x---7----------------------------|
D|--x---9---x---9---x---7---x---7---x---7---x---7----------------------------|
A|---------------------------------------------------------------------------|
E|---------------------------------------------------------------------------|

e|-0---0-0-0-0-0-0-0-0-0-0-0-0-0---------------------------------------------|
B|-0---0-0-0-0-0-0-0-0-0-0-0-0-0---------------------------------------------|
G|-1---1-1-1-1-1-1-1-1-1-1-1-1-1---------------------------------------------|
D|-2---2-2-2-2-2-2-2-2-2-2-2-2-2---------------------------------------------|
A|-2---2-2-2-2-2-2-2-2-2-2-2-2-2---------------------------------------------|
E|-0---0-0-0-0-0-0-0-0-0-0-0-0-0---------------------------------------------|

[Solo]
e|---------------------------------------------------------------------------|
B|---------------------3-3-3-3-3--2------------------3-3-3-3-3--2------------|
G|--4------2-----4-------------------4---------2--4----------------4---2-----|
D|---------------------------------------------------------------------------|
A|---------------------------------------------------------------------------|
E|---------------------------------------------------------------------------|

e|---------------------------------------------------------------------------|
B|--------3-3-3-3-3-2---3---3--2--3---3--2---3----3--2---3--3/5--------------|
G|---4-----------------------------------------------------------------------|
D|---------------------------------------------------------------------------|
A|---------------------------------------------------------------------------|
E|---------------------------------------------------------------------------|

[Verse]
e|-x---2---x---2---x---2---x---2---x---4---x---4---x---4---x---4-------------|
B|-x---3---x---3---x---3---x---3---x---5---x---5---x---5---x---5-------------|
G|-x---4---x---4---x---4---x---4---x---4---x---4---x---4---x---4-------------|
D|-x---4---x---4---x---4---x---4---x-------x-------x-------x-----------------|
A|---------------------------------------------------------------------------|
E|---------------------------------------------------------------------------|

e|-x---2---x---2---x---2---x---2---x---4---x---4---x---4---x---4-------------|
B|-x---3---x---3---x---3---x---3---x---5---x---5---x---5---x---5-------------|
G|-x---4---x---4---x---4---x---4---x---4---x---4---x---4---x---4-------------|
D|-x---4---x---4---x---4---x---4---x-------x-------x-------x-----------------|
A|---------------------------------------------------------------------------|
E|---------------------------------------------------------------------------|

e|-x---2---x---2---x---2---x---2---x---4---x---4---x---4---x---4-------------|
B|-x---3---x---3---x---3---x---3---x---5---x---5---x---5---x---5-------------|
G|-x---4---x---4---x---4---x---4---x---4---x---4---x---4---x---4-------------|
D|-x---4---x---4---x---4---x---4---x-------x-------x-------x-----------------|
A|---------------------------------------------------------------------------|
E|---------------------------------------------------------------------------|

e|-x---2---x---2---x---2---x---2--x------------------------------------------|
B|-x---3---x---3---x---3---x---3--x------------------------------------------|
G|-x---4---x---4---x---4---x---4--x------------------------------------------|
D|-x---4---x---4---x---4---x---4--x------------------------------------------|
A|---------------------------------------------------------------------------|
E|---------------------------------------------------------------------------|

[Chorus]
e|-x---5---x---5---x---5---x---5-----------------------x-------x-------x-----|
B|-x---5---x---5---x---5---x---5---7---x---7---x---7---x---7---x---9---x---9-|
G|-x---6---x---6---x---6---x---6---7---x---7---x---7---x---7---x---9---x---9-|
D|-x---7---x---7---x---7---x---7---7---x---7---x---7---x---7---x---9---x---9-|
A|---------------------------------------------------------------------------|
E|---------------------------------------------------------------------------|

e|--x-------x-------x-------x-------x-------x--------------------------------|
B|--x---9---x---9---x---7---x---7---x---7---x---7----------------------------|
G|--x---9---x---9---x---7---x---7---x---7---x---7----------------------------|
D|--x---9---x---9---x---7---x---7---x---7---x---7----------------------------|
A|---------------------------------------------------------------------------|
E|---------------------------------------------------------------------------|

e|-x---5---x---5---x---5---x---5-----------------------x------ x-------x-----|
B|-x---5---x---5---x---5---x---5---7---x---7---x---7---x---7---x---9---x---9-|
G|-x---6---x---6---x---6---x---6---7---x---7---x---7---x---7---x---9---x---9-|
D|-x---7---x---7---x---7---x---7---7---x---7---x---7---x---7---x---9---x---9-|
A|---------------------------------------------------------------------------|
E|---------------------------------------------------------------------------|

e|--x-------x-------x-------x-------x-------x--------------------------------|
B|--x---9---x---9---x---7---x---7---x---7---x---7----------------------------|
G|--x---9---x---9---x---7---x---7---x---7---x---7----------------------------|
D|--x---9---x---9---x---7---x---7---x---7---x---7----------------------------|
A|---------------------------------------------------------------------------|
E|---------------------------------------------------------------------------|

e|-0---0-0-0-0-0-0-0-0-0-0-0-0-0---------------------------------------------|
B|-0---0-0-0-0-0-0-0-0-0-0-0-0-0---------------------------------------------|
G|-1---1-1-1-1-1-1-1-1-1-1-1-1-1---------------------------------------------|
D|-2---2-2-2-2-2-2-2-2-2-2-2-2-2---------------------------------------------|
A|-2---2-2-2-2-2-2-2-2-2-2-2-2-2---------------------------------------------|
E|-0---0-0-0-0-0-0-0-0-0-0-0-0-0---------------------------------------------|

[Ending]
    >   >     >       
e|------0--------------------------------------------------------------------|
B|--2---2-----2--------------------------------------------------------------|
G|--2---2-----2--------------------------------------------------------------|
D|--2---2-----2--------------------------------------------------------------|
A|--0---0-----0--------------------------------------------------------------|
E|------0--------------------------------------------------------------------|


************************************

| /  Slide up
| x  Dead note
| >  Accented note 

************************************

            
            
Suggest correction
Creating personal tab
Creating personal tab
You can edit any tab online and save it as your Personal.

You can edit, replace or remove any tab part or add personal notes – all changes will be seen only by you.

Personal tabs can be accessed anytime from any device, even offline.
Learn more »
Give kudos to tab author, rate the tab!
1 2 3 4 5
comments
print report bad tab
guest
Wanna post a correction for this tab? Suggest correction