Oops, an error
Loading. Please wait.

Who Wouldve Thought tab

version 2
version 2

Whole song

by Rancid
13,007 views 45 this week
1 commentread comment
1 2 3 4 5
x 13
add to favorites
×
Save as Personal and add changes to this tab that will be seen only by you. Learn more ›
×
You can save this tab as Personal to edit and correct it or add notes. All changes will be seen only by you. Learn more »
launch autoscroll
font size
0
reset
how to read this tab
guitar tuner
edit
Autoscroll
slow
fast
+/-
esc
set tempo
stop
Guitar Tabs " Who Would Have Thought " by Rancid
Guitar Tabs > R > Rancid chords & tabs > Who Would Have Thought Tabs
Please, support Rancid .
Buy: Rancid CDs > Rancid Posters > Rancid Sheet Music

Guitar Tabs by: Rancid
Tabs for song: Who Would Have Thought

# This file is the author's own work and represents their interpretation of the #
# song. You may only use this file for private study, scholarship, or research. #

Download RingtoneSend “Who Would Have Thought” to Cell PhoneDownload Ringtone

Who would've thought
Rancid
Life won't wait

I couldn't find any tabs for this song that had the intro properly
Um, i think theres a few tabs with the Solo on if this 1 isn't to your satisfaction.
So I did it.

Intro (solo)
(with chords C E F C over the top)
e-|---------------/8------------------------|
B-|------------------10-8--------8-10p8-5/8-|
G-|---------5---5---------9--7-9------------|
D-|-----5-7---7-----------------------------|
A-|-5/7-------------------------------------|
E-|-----------------------------------------|

e-|------------------------------------------0-|
B-|------------------------------------------1-|
G-|------------------------------------------0-|
D-|-----5-----------0-2-2-0-----0----0-----0-2-|
A-|-5/7---7-5\3-0-3---------3-0---0----0-3---3-|
E-|--------------------------------------------|

Chorus
C              Em           F           C
Who would have thought that dreams come true
    C              Em                F       C
And who would have thought i'd ended up with you
    C              Em                F        C
And who would have thought what they said was true
       C           Em           F             C
But it was and you are, lighted darkness come through

Verse
F
Silhoetted palm trees backing up against the sky
     C
Echo park sunset, and an ambulance drives by
    Am
But someone went down, and i wonder who
G
Faces flash forward, it could be anybody i knew

(Same chords)
So i drank like a fish 'til i crawled like a rat
Through the city of *** i ended up on my back
But i can't believe your here with with me after dark
So let it come together in echo park

And i say

Chorus

Verse 2 (same chords)
A red flag and your body wins
or a snake bite, gotta start again
So i'm ***ed up from watchin T.V. all day
I don't wanna see what ricki lake gotta say

And it hits me when i'm alone, i'm an angry man
I start singing to myself I got dealt a ***ty hand
With all these feelings, my heart could explode
So is it not fear, knowing it all

And i say

Chorus

Solo (with verse chords underneath) This is completely unaccurate.   I wasn't even 
to the song when i did it.

e-|-----------------------------------------------------------|
B-|-----------------------------------------------------------|
G-|-----------------------------------------------------------|
D-|-----------8-10-10b-10-10-10-10-10-10-8-------8--------10b-|
A-|------8-10------------------------------10-10---10-10------|
E-|-8-11------------------------------------------------------|

e-|--------------------------------------------------------------------------|
B-|--------------------------------------------------------------------------|
G-|--------------------------------------------------------------------------|
D-|-10-10-10-10-10-10-10-8---------------------------------------------------|
A-|------------------------10-10-8-8-10-10-8-8-10-10\8-8\7-7/8-8/10-10/12-12-|
E-|--------------------------------------------------------------------------|

F
Nah nah nah, nah nah nah
C
Nah nah nah, nah nah nah
Am
Nah nah nah, nah nah nah
G
e-|-------------|
B-|-------------|
G-|---------2-5-|
D-|-----2-5-----|
A-|-3-5---------|
E-|-------------|

Chorus

Finish with F then C

This is by no means accurate, it's my first guitar tab for a start,
I have done bass tabs before though.   Please send me any corrections.
I think the intro is ok but look at another tab 4 the solo.

This is from sum1 elses.
SOLO:
e|-------------5----------------------------------------------------------------|
B|-----6---6b7----7-7-6-----------6b888r7----------------------------------6rr--|
G|-5-8---8--------------8-5--8-5-8--------8-5--5-5--------5--5-5--------8rr-----|
D|-------------------------------------------------8--8-8--------8--8-8---------|
A|------------------------------------------------------------------------------|
E|------------------------------------------------------------------------------|
this isnt my tab, but its pretty good

            
            
Suggest correction
Creating personal tab
Creating personal tab
You can edit any tab online and save it as your Personal.

You can edit, replace or remove any tab part or add personal notes – all changes will be seen only by you.

Personal tabs can be accessed anytime from any device, even offline.
Learn more »
comments
print report bad tab
1 comment total.
0 reply
afropunkx 92 Jul 26, 2009 08:43 AM

after playing it thru i think the second solo is almost perfect, ignore the first one

guest
Wanna post a correction for this tab? Suggest correction