Oops, an error
Loading. Please wait.

Sail Away ukulele

version 2
version 2

Whole song

  • Ukulele chord sheet / special voicings for chords ... Show more
163 views 1 this week
no commentswrite comment
1 2 3 4 5
3 more votes to show rating
add to favorites
×
Save as Personal and add changes to this tab that will be seen only by you. Learn more ›
×
You can save this tab as Personal to edit and correct it or add notes. All changes will be seen only by you. Learn more »
launch autoscroll
font size
0
reset
transpose
0
reset
simplify chords
display chords
guitar tuner
edit
Autoscroll
slow
fast
+/-
esc
set tempo
stop
Author
Difficulty
maguri [tm] 32,615
intermediate
About this tab version
Ukulele chord sheet / special voicings for chords / short tabs for verse 1 and chorus as well as verse 2 and outro / complete and well-aligned. Was this info helpful? Yes No
Strumming
There is no strumming pattern for this song yet. and get +5 IQ
---------------------------------------------------------------------------
                Sail Away - Randy Newman
---------------------------------------------------------------------------
Tabbed by: maguri
Tuning: soprano C

Randy Newman
Sail Away (1972)
(Newman)

From: "Sail Away"

---------------------------------------------------------------------------


[Verse 1]

  F       Dm7      G7               C7sus4           F
  1 + 2 + 3 + 4 +  1 + 2 + 3 + 4 +  1 + 2 + 3 + 4 +  1 + 2 + 3 + 4 +  
A|0-------3-------|2-------5-------|1-------5-------|0-------3-------|
E|1-------1-------|1-------1-------|1-------1-------|1-------1-------|
C|0-------2-------|2-------2-------|0-------0-------|0-------0-------|
g|2-------2-------|0-------0-------|0-------0-------|2-------2-------|


[Chorus]
             Fsus4                            Bbsus4
  F               F                Bb              Bb
  1   +   2   +   3   +   4   +    1   +   2   +   3   +   4   +
A|0-------0-------0-------0-------|1-------1-------1-------1-------|
E|1-------1-----1-1-------1-------|1-------1-----1-1-------1-------|
C|0-------0-----0-2-------0-------|2-------2-----3-2-------2-------|
g|2-------2-----3-2-------2-------|3-------3-----3-3-------3-------|
  F               Dm               G7              C7     
  1   +   2   +   3   +   4   +    1   +   2   +   3   +   4   +
A|0-------0-------0-------0-------|2-------2-------1-------1-------|
E|1-------1-------1-------1-------|1-------1-------0-------0-------|
C|0-------0-------2-------2-------|2-------2-------0-------0-------|
g|2-------2-------2-------2-------|0-------0-------0-------0-------|



[Interlude and Outro]

  F               Dm               G7 (no 3rd!)    Csus4    
  1   +   2   +   3   +   4   +    1   +   2   +   3   +   4   +
A|--------------------------------|--------------------------------|
E|1-------1-------1---3---1-------|1-------1-------1---3---1-------|
C|0-------0---0h2-2---2---2---0h2-|2-------2---0h2-0---0---0---0h2-|
g|2-------2-------2-------2-------|0-------0-------0-------0-------|


[Verse 2]

  F               Dm               G7 (no 3rd!)     
  1   +   2   +   3   +   4   +    1   +   2   +   3   +   4   +
A|--------------------------------|--------------------------------|
E|1-------1-------1---3---1-------|1-------1-------1---3---1-------|
C|0-------0---0h2-2---2---2---0h2-|2-------2---0h2-2---2---2---0h2-|
g|2-------2-------2-------2-------|0-------0-------0-------0-------|
  Csus4                            F     
  1   +   2   +   3   +   4   +    1   +   2   +   3   +   4   +
A|--------------------------------|--------------------------------|
E|1-------1-------1---3---1-------|1-------1-------1---3---1-------|
C|0-------0---0h2-0---2---0---0h2-|0-------0---0h2-0---0---0---0h2-|
g|0-------0-------0-------0-------|2-------2-------0-------0-------|



---------------------------------------------------------------------------

SPECIAL CHORDS

(Intro]           [Verse 1]
C6     0-0-0-0    Dm7    2-2-1-3
C      0-0-3-x    G7     0-2-1-2
                  C7sus4 0-0-1-1

[Chorus]          [Interlude, Verse 2 and Outro]
Fsus4  3-0-1-x    F      2-0-1-x 
Bbsus4 3-3-1-1    Dm     2-2-1-x
                  G7     0-2-1-x (no 3rd!)
                  Csus4  0-0-1-x


---------------------------------------------------------------------------

[Intro]
F     A                  Dm          F7
  In America, you'll get food to eat
Bb             C6              C           Bb            F     C     Bb  
 Won't have to run through the jungle, and scuff up your feet
F             A                          Dm           F7
  You'll just sing about Jesus and drink wine all day
Bb             C6     C        Bb  F  Bb
 It's great to be an American 


[Verse 1]
F           Dm7                       G7
   Ain't no lions or tigers, ain't no mamba snake
C7sus4                                F
   Just the sweet watermelon and the buckwheat cake
F       Dm7                   G7
   Everybody is as happy as a man can be
C7sus4                            F
   Climb aboard little wog, sail away with me


[Chorus]
      F    Fsus4 F         Bb    Bbsus4 Bb
Sail away,           sail away
        F                Dm                    G7   C7
We will cross the mighty ocean into Charleston Bay
      F    Fsus4 F         Bb    Bbsus4 Bb
Sail away,           sail away
        F         Dm     G7          C7        [ F ]
We will cross the mighty ocean, into Charleston Bay


[Interlude]
| F | Dm | G7 (no 3rd!) | Csus4 |


[Verse 2]
F      Dm            G7 (no 3rd!)
   In America, every man is free
C7sus4                               F
   To take care of his home and his family
F               Dm                     G7 (no 3rd!)
   You'll be as happy as a monkey in a monkey tree
C7sus4                              F
   You're all gonna be an American


[Chorus]
      F    Fsus4 F         Bb    Bbsus4 Bb
Sail away,           sail away
        F                Dm7                   G7   C7
We will cross the mighty ocean into Charleston Bay
      F    Fsus4 F         Bb    Bbsus4 Bb
Sail away,           sail away 
        F         Dm7    G7          C7        [ F ]
We will cross the mighty ocean, into Charleston Bay


[Outro]
| F | Dm | G7 (no 3rd!) | C7sus4 |
(repeat and fade)



            
            
Suggest correction
Creating personal tab
Creating personal tab
You can edit any tab online and save it as your Personal.

You can edit, replace or remove any tab part or add personal notes – all changes will be seen only by you.

Personal tabs can be accessed anytime from any device, even offline.
Learn more »
Give kudos to tab author, rate the tab!
1 2 3 4 5
comments
print report bad tab
guest
You may want to rate the tab now too:
select rating
Wanna post a correction for this tab? Suggest correction