Oops, an error
Loading. Please wait.
We have Chord Pro version of What Hurts The Most.
It's the closest thing you can get to the original song and it has interactive parts. Check out the tab »
×
283,231 views 24 this week
12 commentsread comments
1 2 3 4 5
x 47
add to favorites
×
Save as Personal and add changes to this tab that will be seen only by you. Learn more ›
×
You can save this tab as Personal to edit and correct it or add notes. All changes will be seen only by you. Learn more »
launch autoscroll
font size
0
reset
transpose
0
reset
simplify chords
display chords
guitar tuner
edit
Autoscroll
slow
fast
+/-
esc
set tempo
stop
Author
Difficulty
intermediate
Strumming
There is no strumming pattern for this song yet. and get +5 IQ
Tabbed by: Trey M. And Caleb L.
Capo First Fret.


[Intro]

e|-------------------------------------------------0------------------------|
B|--------------------------------3-------------3----------------3----------|
G|----------------------------0------------2------------------0-------------|
D|-------------------------2-----------0-------------------2----------------|
A|--0-2h3-2-0---------------------------------------3-----------------------|
E|-----------------3--0-----------------------------------------------------|


[Intro] 

Em - D - Cadd9 (x2)


[Verse 1]

Em7              D                       Cadd9
 I can take the rain on the roof of this empty house,
             D
That don't bother me,
Em7                D                          C
 I can take a few tears now and then and just let em out,
     D(no5)    Cadd9
I'm not       afraid to cry every once in awhile,
(D)         Em7                               (D)
even though goin on with you gone, still upsets me,
Cadd9
there are days every now and again, I pretend I'm ok,
              D
But that's a not what gets me


[Chorus]

Em                  D - Cadd9
   What hurts the most,      was being so close,
G                          C - D
 and having so much to say,    and watching you walk away,
Em                D - Cadd9
   And never knowin',        what could've been,
G                         Dsus4         D             Em7 - D - Cadd9
 And not seein that lovin you, is what I was tryin to do

Em7                            D                     Cadd9
   It's hard to deal with the pain of losin you everywhere I go,
          D
But I'm doin' it,
Em7                          D                       Cadd9
   It's hard to force that smile when I see our old friends and I'm alone,
        D
Still harder,
Cadd9                                 (D)
gettin up, gettin dressed, livin with this regret,
    Em7                      (D)   Cadd9
But I know if I could do it over,     I would trade, give away
                                                 D
all the words that I saved in my heart that I left unspoken


[Chorus]

Em                  D - Cadd9
   What hurts the most,      is being so close,
G                         C - D
 and having so much to say,   and watching you walk away,
Em                D - Cadd9
   And never knowin',        what could've been,
G                         Dsus4         D              C - D - C
 And not seein that lovin you, is what I was tryin to do


                        Hey
(lead - Em - D - Cadd9  -  Em - D - Cadd9)


[Chorus]

Em                  D - Cadd9
   What hurts the most,      was being so close,
G                           C   D                             D#m - Em 


[Solo]

e|--------------------------------------------------------------------11-11|
B|-----------11-13~--11-11----------------------13-11--------11-13-13------|
G|--10-12-13---------------13-13-12-12-10-10----------13~-13---------------|
D|-------------------------------------------13----------------------------|
A|-------------------------------------------------------------------------|
E|-------------------------------------------------------------------------|

e|-13-13-15-15-16~-16-13---13----------------------------------------------|
B|----------------------16---16-13-16-13-----------------------------------|
G|--------------------------------------15--13-----------------------------|
D|---------------------------------------------15--------------------------|
A|-------------------------------------------------------------------------|
E|-------------------------------------------------------------------------|



************************************

| h  Hammer-on
| ~  Vibrato

************************************

            
            
Suggest correction
Creating personal tab
Creating personal tab
You can edit any tab online and save it as your Personal.

You can edit, replace or remove any tab part or add personal notes – all changes will be seen only by you.

Personal tabs can be accessed anytime from any device, even offline.
Learn more »
comments
print report bad tab
12 comments total. Showing first comments.
+2 reply
chuckroast0 10 Jun 29, 2006 03:44 PM

its all good except on the intro, when u pick out those three chords, isnt there four notes instead of 3?? just something to think about... i may be wrong but w/e

0 reply
Spider2711 10 Jul 11, 2006 12:07 PM

strumming pattern anyone? i cant get it...i suck at hearing it and then figuring it out

0 reply
ioctguitarist 41 Aug 17, 2006 06:10 PM

love this song, great tab its def. good enough to play off of

guest
You may want to rate the tab now too:
select rating
Wanna post a correction for this tab? Suggest correction