Oops, an error
Loading. Please wait.

Del Cielo tab

11 views 1 this week
no commentswrite comment
1 2 3 4 5
3 more votes to show rating
add to favorites
×
Save as Personal and add changes to this tab that will be seen only by you. Learn more ›
×
You can save this tab as Personal to edit and correct it or add notes. All changes will be seen only by you. Learn more »
launch autoscroll
font size
0
reset
how to read this tab
guitar tuner
edit
Autoscroll
slow
fast
+/-
esc
set tempo
stop
Parte 1  (dos veces)

Guitarra 1
E|--------------------------------------------------|
B|--------------------------------------------------|
G|--------------------------------------------------|
D|--------------------------------------------------|
A|-------------------------4---2---0----------------|
E|-0--2--4--5--5-5-5-5-5--------------0-0-0-0-0-----|


Guitarra 2
E|-------------5-------5--------------0--------0----|
B|-------------5-------5--------------0--------0----|
G|-------------6-------6--------------1--------1----|
D|-------------7-------7--------------2--------2----|
A|-------------7-------7--------------2--------2----|
E|-------------5-------5--------------0--------0----|

Parte 2 (dos veces)

Guitarra 1

E|------------------------------------------5---3---0-|
B|---7---7---7---5---5---5----3---3---3-----5---3---0-|
G|-7---7---7---6---6---6----4---4---4-------6---4---1-|
D|------------------------------------------7---5---2-|
A|------------------------------------------7---5---2-|
E|------------------------------------------5---3---0-|
 
Guitarra 2

   D              Dbm             Bm        A   G    E

E|-5-5-5-5--------4-4-4-4---------2-2-2-2--------|
B|-6-6-6-6--------5-5-5-5---------3-3-3-3--------|
G|-6-6-6-6--------6-6-6-6---------4-4-4-4--------|
D|-6-6-6-6--------6-6-6-6---------4-4-4-4--------|
A|-5-5-5-5--------4-4-4-4---------2-2-2-2--------|
E|-x-x-x-x--------x-x-x-x---------x-x-x-x--------|

Verso

        A             E          (dos veces)
Del cielo me cayo una gauama*

D                 Dbm               Bm 
Era Carta Blanca, era Carta Blanca, era Carta Blanca

        A  G   E    (dos veces)
y yo me la chinge

         A           E        (dos veces)       
Del cielo me cayo marijuana

D                Dbm              Bm                                  
Era de la buena, era de la buena, era de la buena 

         A G  E  (dos veces)
y yo me la fume

        A              E        (dos veces)
Del cielo me cayo una muchacha

D               Dbm             Bm
Era virgencita, era virgencita, era virgencita
   
     A   G  E   (dos veces)
y yo se lo quite

Parte 3 (dos veces)

Guitarra 1

E|----------------------------------------------------|
B|-------------------------2--------------------------|
G|--------1--2--2-2-2-2-2------4--2-------------------|
D|-2---4---------------------------------2--2-2-2-2-2-|
A|----------------------------------------------------|
E|----------------------------------------------------|

Guitarra 2

E|-------------5-------5------------------0-------0-|
B|-------------5-------5------------------0-------0-|
G|-------------6-------6------------------1-------1-|
D|-------------7-------7------------------2-------2-|
A|-------------7-------7------------------2-------2-|
E|-------------5-------5------------------0-------0-|

Despues de esto, se toca la parte 2 dos veces

Luego se repiten los versos, pero ahora se tocan mas rapido

Parte 4 (tres veces)

Guitarra 1

E|-------------------------------------------------|
B|-------------------------------------------------|
G|-------------------------------------------------|
D|----------------2---2----------------------1---1-|
A|--------------------------4---2--0---------------|
E|-0--2---4--5------------------------0------------|

La primera vez Guitarra 2 toca A y lo deja sonar


*No se como se deletrea

            
            
Suggest correction
Creating personal tab
Creating personal tab
You can edit any tab online and save it as your Personal.

You can edit, replace or remove any tab part or add personal notes – all changes will be seen only by you.

Personal tabs can be accessed anytime from any device, even offline.
Learn more »
Give kudos to tab author, rate the tab!
1 2 3 4 5
comments
print report bad tab
guest
Wanna post a correction for this tab? Suggest correction