Oops, an error
Loading. Please wait.

Endorfina tab

version 1
version 1

Whole song

169 views 1 this week
no commentswrite comment
1 2 3 4 5
2 more votes to show rating
add to favorites
×
Save as Personal and add changes to this tab that will be seen only by you. Learn more ›
×
You can save this tab as Personal to edit and correct it or add notes. All changes will be seen only by you. Learn more »
launch autoscroll
font size
0
reset
how to read this tab
guitar tuner
edit
Autoscroll
slow
fast
+/-
esc
set tempo
stop
La afinacion de todas las cuerdas es medio tono abajo y
los acordes son en quintas

FIG 1

E:-----------------------------------------------------------
B:-----------------------------------------------------------
G:-----------------------------------------------------------
D:-----------------------------------------------------------
A:-----4-2----------------------------4-2--------------------
E:-2-5-----5-2---0-2-0-5-2-0-2----2-5-----5-2---2-2-2--2-2-2-

FIG 2

E:-----------------------------------------------------------
B:-----------------------------------------------------------
G:-----------------------------------------------------------
D:-----------------------------------------------------------
A:-----4-2----------------------------4-2-------4-3-2--------
E:-2-5-----5-2---0-2-0-5-2-0-2----2-5-----5-2---------5------


FIG 3
E:------------------------------------------------------------------------
B:------------------------------------------------------------------------
G:------------------------------------------------------------------------
D:-----------------------------------------------2-----------------------
A:-----4-2------------------------4-2------4-3-2---3-2-0-2-3-4-3-2-0-----
E:-2-5-----5-2-0-2-0-5-2-0-2--2-5-----5-2-----------------------------0-2-


FIG 4

E:-2-0-2-0-2-5---2-0-2-0-5-----

FIG 5

D:------2----------
A:--3-4---4-3-2-0--

INTRO

FIG 1
FIG 2
FIG 1
FIG 3

F#                     A
A veces te parece que está todo mal
B                                 F#
si piensas diferente a todos los demás
F# A  E         D     B
verás no suena nada extraño

F#                        A
Se junta la basura a tu alrededor
B                         F#
y tirás con la mierda en el ventilador
F# A   E          B     D
igual no puedes arreglarlo

E
Sabes que el mundo no aceptará
B                   F#
que digamos la verdad
E                           C#
pero esto no lo pueden detener
B      A            F#
porque es rock and roll

FIG 1
FIG 2
FIG 1
FIG 3

(SE REPITEN LOS MISMOS ACORDES)

Te sigues sorprendiendo cada día más
y ves como te invade la mediocridad
que hoy está por todos lados

Y ves como cualquiera dice que hace rock
y ves como los premian por televisión
quizá creyendo que eres tonto

Es que esos Marshall no sonarán
solo están para pintar esa parodia
que van a vender y ellos lo llaman rock

Sabes que el mundo no aceptará
que digamos la verdad
pero esto no lo pueden detener
porque es solo rock and roll


FIG 4 POR LO QUE DURA EL SOLO Y TERMINA CON LA FIG 5

FIG 1

Saludos para todo el mundo ( O=)===:::

|-î-®-â-n-®-ø-¢-k

            
            
Suggest correction
Creating personal tab
Creating personal tab
You can edit any tab online and save it as your Personal.

You can edit, replace or remove any tab part or add personal notes – all changes will be seen only by you.

Personal tabs can be accessed anytime from any device, even offline.
Learn more »
Give kudos to tab author, rate the tab!
1 2 3 4 5
comments
print report bad tab
guest
Wanna post a correction for this tab? Suggest correction