Oops, an error
Loading. Please wait.

Endorfina tab

version 2
version 2

Whole song

133 views 1 this week
no commentswrite comment
1 2 3 4 5
3 more votes to show rating
add to favorites
×
Save as Personal and add changes to this tab that will be seen only by you. Learn more ›
×
You can save this tab as Personal to edit and correct it or add notes. All changes will be seen only by you. Learn more »
launch autoscroll
font size
0
reset
how to read this tab
guitar tuner
edit
Autoscroll
slow
fast
+/-
esc
set tempo
stop
purorock_pablo@


INTRO:

g|---------------------------------------------
D|---------------------------------------------
A|---0-4-2-0---------0------0-4-2-0------------
E|-2---------2-0-2-0---2--2---------2----------

g|---------------------------------------------
D|---------------------------------------------
A|---0-4-2-0---------0------0-4-2-0---4-3-2----
E|-2---------2-0-2-0---2--2---------2----------

g|---------------------------------------------
D|---------------------------------------------
A|---0-4-2-0---------0------0-4-2-0------------
E|-2---------2-0-2-0---2--2---------2----------

g|------------------------------------------------------------
D|----------------------------------------2-------------------
A|---0-4-2-0---------0------0-4-2-0-4-3-2---3-2-0-2-3-4-3-2-0-
E|-2---------2-0-2-0---2--2-----------------------------------


g|-------------------------------------------------------------
D|-4-----------------7----------------9------------------------
A|-4-----------------7----------------9------------------------
E|-2-----------------5----------------7------------------------

  A veces te parece que está todo mal si piensas diferente

g|----------------------------------------------------------------
D|-------4------------7-2-----11--9-------------------------------
A|-------4------------7-2-----11--9-----------------5---------5---
E|-------2------------5-0-----9---7---------5p7-7-5---5p7-7-5---5-

 A todos los demás;  verás    no suena nada extraño

g|-------------------------------------------------------------
D|-4-----------------7----------------9------------------------
A|-4-----------------7----------------9------------------------
E|-2-----------------5----------------7------------------------

  Se junta la basura a tu alrededor, y tiras con la mierda

g|----------------------------------------------------------------
D|-------4------------7-2-----11--9-------------------------------
A|-------4------------7-2-----11--9-----------------5---------5---
E|-------2------------5-0-----9---7---------5p7-7-5---5p7-7-5---5-

  En el ventilador;   igual  no puedes arreglarlo


g|----------------------------------------------------------
D|----------------------------------------------------------
A|-------0--------0---------------0-----------------------5-
E|-2-2-0----2-2-0---2-0------2--2----2--0---------5p7-7-5---

Sabes que el mundo no aceptará que digamos la verdad

g|----------------------------------------------------
D|-----------------------------9------7----------4----
A|--------0--------0-----------9------7----------4----
E|--2-2-0----2-2-0---2-0-------7------5----------2----

Pero esto no lo pueden detener porque es rock & roll


g|-----------------------------------------------------
D|-9/2-------------------------------------------------
A|-9/2-------0-4-2-0---------0------0-4-2-0------------
E|---------2---------2-0-2-0---2--2---------2----------

  Vamos!

g|---------------------------------------------
D|---------------------------------------------
A|---0-4-2-0---------0------0-4-2-0---4-3-2----
E|-2---------2-0-2-0---2--2---------2----------

g|---------------------------------------------
D|---------------------------------------------
A|---0-4-2-0---------0------0-4-2-0------------
E|-2---------2-0-2-0---2--2---------2----------

g|------------------------------------------------------------
D|----------------------------------------2-------------------
A|---0-4-2-0---------0------0-4-2-0-4-3-2---3-2-0-2-3-4-3-2-0-
E|-2---------2-0-2-0---2--2-----------------------------------


g|-------------------------------------------------------------
D|-4-----------------7----------------9------------------------
A|-4-----------------7----------------9------------------------
E|-2-----------------5----------------7------------------------

  Te sigues sorprendiendo cada día más, y ves como te invade

g|----------------------------------------------------------------
D|-------4------------7-2-----11--9-------------------------------
A|-------4------------7-2-----11--9-----------------5---------5---
E|-------2------------5-0-----9---7---------5p7-7-5---5p7-7-5---5-

  La mediocridad    que hoy   está por todos lados

g|-------------------------------------------------------------
D|-4-----------------7----------------9------------------------
A|-4-----------------7----------------9------------------------
E|-2-----------------5----------------7------------------------

 Y ves como cualquiera dice que hace rock, y ves como los premian

g|----------------------------------------------------------------
D|-------4------------7-2-----11--9-------------------------------
A|-------4------------7-2-----11--9-----------------5---------5---
E|-------2------------5-0-----9---7---------5p7-7-5---5p7-7-5---5-

 por televisión      quizá    creyendo que eres tonto

g|----------------------------------------------------------
D|----------------------------------------------------------
A|-------0--------0---------------0-----------------------5-
E|-2-2-0----2-2-0---2-0------2--2----2--0---------5p7-7-5---

 Es que esos Marshall no sonarán, sólo están para pintar

g|----------------------------------------------------
D|-----------------------------9------7----------4----
A|--------0--------0-----------9------7----------4----
E|--2-2-0----2-2-0---2-0-------7------5----------2----

  Esa parodia que van a perder que ellos llaman rock


g|--------------------------
D|--------------------------
A|-----------0----------0--- (X 18)
E|-2-0-2-0-2----2-0-2-0-----

g|-----------------------------------------
D|-----------------------------------------
A|-----------0-3-2-0-2-3-4-3-2-0-----------
E|-2-0-2-0-2-------------------------------


g|----------------------------------------------------------
D|----------------------------------------------------------
A|-------0--------0---------------0-----------------------5-
E|-2-2-0----2-2-0---2-0------2--2----2--0---------5p7-7-5---

Sabes que el mundo no aceptará que digamos la verdad

g|----------------------------------------------------
D|-----------------------------9------7----------4----
A|--------0--------0-----------9------7----------4----
E|--2-2-0----2-2-0---2-0-------7------5----------2----

Pero esto no lo pueden detener porque es rock & roll


g|---------------------------------------------
D|---------------------------------------------
A|---0-4-2-0---------0------0-4-2-0------------
E|-2---------2-0-2-0---2--2---------2----------

 Quiero endorfina
 ******************** esta parte x 3 ***********


g|---------------------------------------------
D|---------------------------------------------
A|---0-4-2-0---------0------0-4-2-0---3-4-2----
E|-2---------2-0-2-0---2--2---------2----------

  Endorfina

g|---------------------------------------------
D|---------------------------------------------
A|---0-4-2-0---------0------0-4-2-0------------
E|-2---------2-0-2-0---2--2---------2----------

**************** esta parte x 3 **************

g|---------------------------------------------
D|----------------------------------4----------
A|---0-4-2-0---------0------0-4-2-0-4----------
E|-2---------2-0-2-0---2--2---------2----------

g|----------------------------------------------------------8--
D|-7--2-----------------------------------------------------8--
A|-7--2-----0-4-2-0---0---0-4-2-0---0---0-4-2-0---4-2-0-4---6--
E|-5--0---2---------2---2---------2---2---------2--------------

            
            
Suggest correction
Creating personal tab
Creating personal tab
You can edit any tab online and save it as your Personal.

You can edit, replace or remove any tab part or add personal notes – all changes will be seen only by you.

Personal tabs can be accessed anytime from any device, even offline.
Learn more »
Give kudos to tab author, rate the tab!
1 2 3 4 5
comments
print report bad tab
guest
Wanna post a correction for this tab? Suggest correction