Oops, an error
Loading. Please wait.

La Leyenda Del Hada Y El Mago (2) tab

version 2
version 2

Whole song

79 views 1 this week
no commentswrite comment
1 2 3 4 5
3 more votes to show rating
add to favorites
×
Save as Personal and add changes to this tab that will be seen only by you. Learn more ›
×
You can save this tab as Personal to edit and correct it or add notes. All changes will be seen only by you. Learn more »
launch autoscroll
font size
0
reset
how to read this tab
guitar tuner
edit
Autoscroll
slow
fast
+/-
esc
set tempo
stop
solo

(escrito por diego)

E|12p7----------3|-7p3-3------||-14p11?11-14p11--11-15p12--12-15p12?-12-|
B|----8--------5-|----5-7-4-5-||------12-------12--------12--------12---|
G|-----9------4--|-----------*||----------------------------------------|
D|------9----5---|-----------*||----------------------------------------|
A|-------10-7----|-----------*||----------------------------------------|
E|---------------|-----------*||----------------------------------------|


E-17p14--14-17p14--14-19p15?-15-19|-20p17--17-17p14--14-19p15--15-15p12?-
B------15--------15--------17-----|------17--------15--------17--------13
G---------------------------------|--------------------------------------
D---------------------------------|--------------------------------------
A---------------------------------|--------------------------------------
E---------------------------------|--------------------------------------

E-12|-15p12?-12-14p11?11--/12||-/12-14-15-14b-14p12-14-12-14-15-12-14-15-
B---|------12--------12------||------------------------------------------
G---|-----------------------*||------------------------------------------
D---|-----------------------*||------------------------------------------
A---|------------------------||------------------------------------------
E---|------------------------||------------------------------------------

E-14-15-17-14-15-17-19b-19p17-19-19b-19-17----------------19p15---17p14--
B------------------------------------------20-19-17-19--17------15-------
G------------------------------------------------------------------------
D------------------------------------------------------------------------
A------------------------------------------------------------------------
E------------------------------------------------------------------------

E----------------------19b---/14-14~---------11-12-14-12-11--------------
B-15---------------------------------10-12-13--------------13-12-10------
G----20-20br-19-21br-20--------------------------------------------12-11-
D------------------------------------------------------------------------
A------------------------------------------------------------------------
E------------------------------------------------------------------------


E------------------------5-9p5-----16p13--12-19p16--16-22p19--19-21b-----
B-----------------------7-----7---------15--------18--------21-----------
G-9-8------------------6-------6-----------------------------------------
D----10-9-7-----------7---------7----------------------------------------
A----------10-9-7-9--9-----------9---------------------------------------
E------------------------------------------------------------------------

E-21p17---------------------------19p16-------------------------------16-
B------19-------17~--15b-15p14-15------17-------15~-14b-14p12-14--/19----
G--------18------------------------------16------------------------------
D----------19------------------------------18----------------------------
A------------21------------------------------19--------------------------
E------------------------------------------------------------------------

E-17-19-19b---21p17---17-17p14---14-14p9---9---20b*-21b*--20-19-17-19-17-
B------------------19---------14--------10-------------------------------
G------------------------------------------------------------------------
D------------------------------------------------------------------------
A------------------------------------------------------------------------
E------------------------------------------------------------------------

E-15-20-19-17-19-17-15-17-15-14-15-14-12-14-12-10-12-10-8-10-8-7-12-10-8-
B------------------------------------------------------------------------
G------------------------------------------------------------------------
D------------------------------------------------------------------------
A------------------------------------------------------------------------
E------------------------------------------------------------------------

E-14-12-10-12-10-8-14-12-10-12-10-8-10-8-7-8-7-5-7-5-3-5-3-2-5-3-2-7-5-3-
B------------------------------------------------------------------------
G------------------------------------------------------------------------
D------------------------------------------------------------------------
A------------------------------------------------------------------------
E------------------------------------------------------------------------

E-8-7-5-10-8-7-12-10-8-14-12-10-15-14-12-17-15-14-19-17-15-19b-19p17-----
B--------------------------------------------------------------------19b-
G------------------------------------------------------------------------
D------------------------------------------------------------------------
A------------------------------------------------------------------------
E------------------------------------------------------------------------

E-------------5p2--2-5p2--2-4p1--1-4p1---1-7p4--4-7p4--4-5p2--2-5p2--2---
B-19b-19br------2------2------2-------2------6------6------2------2-----
G------------------------------------------------------------------------
D------------------------------------------------------------------------
A------------------------------------------------------------------------
E------------------------------------------------------------------------

E-9p5--5-9p5--5-7p4?4-7p4?4-10p7--7-10p7--7-9p5--5-9p5--5-10p7--7-10p7--7
B----5------5------5-----5------9-------9------5------5-------9-------9--
G------------------------------------------------------------------------
D------------------------------------------------------------------------
A------------------------------------------------------------------------
E------------------------------------------------------------------------

E-11p8--8-11p8--8-12p9---9-12p9---9-13p10---10-13p10---10-14p10---10-----
B-----9-------9-------10-------10--------10---------10---------12--------
G------------------------------------------------------------------------
D------------------------------------------------------------------------
A------------------------------------------------------------------------
E------------------------------------------------------------------------

E-14p10---10-10p7--7-7p2-------------------------------------------------
B------12--------7-------3---------15-13-12-17-15-13-15-13-12-17-15-13-19
G--------------------------4-4b~-----------------------------------------
D------------------------------------------------------------------------
A------------------------------------------------------------------------
E------------------------------------------------------------------------

E-------------------------19br-19p17-------------------------------------
B-17-15-20-19-17-22-20-19------------19b~---7---7-9-10--7---7-9-10-------
G-------------------------------------------9b----------9b---------------
D------------------------------------------------------------------------
A------------------------------------------------------------------------
E------------------------------------------------------------------------

E---------7-12p7---------------15-14-12-14-12-11-15-14-12-14-12-11-17-15-
B--------8------8-------10b----------------------------------------------
G-------9--------9-------------------------------------------------------
D------9----------9------------------------------------------------------
A--7-10------------10p7--------------------------------------------------
E------------------------------------------------------------------------

E-14-15-14-12-14-12-11-15-14-12-17-15-14-19-17-15-20-19-17-19-17-15-17-15
B------------------------------------------------------------------------
G------------------------------------------------------------------------
D------------------------------------------------------------------------
A------------------------------------------------------------------------
E------------------------------------------------------------------------

E-14-15-14-12-14-12-10-12-10-8-12-10-8-----------------------------------
B--------------------------------------12-10-8---------------------------
G----------------------------------------------11-9-7--------------------
D-----------------------------------------------------10-9-7-------------
A------------------------------------------------------------10-9-7br----
E------------------------------------------------------------------------
                                            Fin SOLO
E--------7-1211-(11)p7----------------------------------|--------------|
B-------8--------------8-------/17-19-20-17-19-20-22b-22~|--SE-REPITE---|
G------9----------------9--------------------------------|--EL-PRINCIPIO|
D-----9------------------9-------------------------------|--Y-EL-CORO---|
A-7-10--------------------10p7---------------------------|--------------|
E--------------------------------------------------------|--------------|

 Ultimo solo
E------------------------------------------------------------------------
B------------------------------------------------------------------------
G--------------------------------------------------------14-16-17--------
D-----------------------------------------------14-16-17----------16-17--
A-----------12-14-15----------14-15-17-14-15-17--------------------------
E--12-14-15----------14-15-17--------------------------------------------

E-----------------------------------------17-19-20----------19-20-22-22~-
B-----------------------17-19-20-17-19-20----------19-20-22--------------
G-----16-17-19-16-17-19--------------------------------------------------
D--19--------------------------------------------------------------------
A------------------------------------------------------------------------
E------------------------------------------------------------------------

E------------||----------------------------------------------------------
B------------||----------------------------------------------------------
G?-9~----9--||----------------------------------------------------------
D?-9~----9--||----------------------------------------------------------
A?-7~----7--||----------------------------------------------------------
E------------||----------------------------------------------------------

            
            
Suggest correction
Creating personal tab
Creating personal tab
You can edit any tab online and save it as your Personal.

You can edit, replace or remove any tab part or add personal notes – all changes will be seen only by you.

Personal tabs can be accessed anytime from any device, even offline.
Learn more »
Give kudos to tab author, rate the tab!
1 2 3 4 5
comments
print report bad tab
guest
Wanna post a correction for this tab? Suggest correction