Oops, an error
Loading. Please wait.

Magos, Espadas Y Rosas tab

34 views 1 this week
no commentswrite comment
1 2 3 4 5
3 more votes to show rating
add to favorites
×
Save as Personal and add changes to this tab that will be seen only by you. Learn more ›
×
You can save this tab as Personal to edit and correct it or add notes. All changes will be seen only by you. Learn more »
launch autoscroll
font size
0
reset
how to read this tab
guitar tuner
edit
Autoscroll
slow
fast
+/-
esc
set tempo
stop
TRANSCRITO POR JOSE A MEJIA S. (JOSEMEJIA_2000@
De: rocker chapin.(100 % GUATECHIVO).
a: amantes del musicon
 
Bueno queridos hermanos amantes de esta buena banda aqui les mando una
muy buena rola de este grupon espero les guste y esta casi completa lo
ultimo que falta es el ''solo'' del final que si lo tienen les pido que 
buena onda me lo manden, tiene pocos errores que si tienen buen oido
los escucharan, cualquier duda, comentario, mentadas, o simplemente 
alguna otra rola de cualquier grupo escribanme a luzbell@
yo creo que ya se cansaron de tanto bla bla bla bueno aqui se las dejo
y que viva el rock Guatemalteco...... viva viva viva el rock chapin 

 Esto es el principio y es con distorcion suave.. 

e|-----------------------------------|
B|-----------------------------------|
G|-----------------------------------|
D|--12---7---------------------------|
A|--10---9---------------5/7/5-------|
E|------------0---5---7--------------|

Esto es lo tabulado que se escucha al fondo de la cancion
pero se va con las notas Sim Sol# La Fa#m y el efecto de
delay.
     
  siento el calor de toda tu piel, en mi cuerpo otra vez estrella fugaz
e|-------------------------------------------------------------------------|
B|---------3-----------3----------3---------------3-----------------------3|
G|-------4-----------4----------3--------------3-----------------------4---|
D|-----4-----------4----------3-------------3-----------------------4------|
A|-2------------2-----------0------------0-----------------------2---------|
E|-------------------------------------------------------------------------|

    que ensiendes mi ser misteriosa mujer con tu amor sensual cuanto me das
e|------------------------------------------------------------------------------------------|
B|--------3----------3-----------------3----------------3--------3---------------------3----|
G|------4----------3-----------------3----------------4--------4---------------------4------|
D|----5----------3-----------------3----------------5--------5---------------------4--------|
A|--5----------0-----------------0----------------5--------5---------------------2----------|
E|------------------------------------------------------------------------------------------|


                   has que mi sueño sea una verdad dame tu alma hoy has el ritual 
e|-----------------------------------------------------------------------------------------------|
B|----------3--------3--------5-------3--------3----------------3---------3-------------3-------3|
G|-------4---------3--------4-------4--------4----------------4---------4-------------4-------4--|
D|-----4---------3--------4-------5--------5----------------5----------5------------4-------4----|
A|--2----------0--------2-------5--------5----------------5----------5------------2-------2------|
E|-----------------------------------------------------------------------------------------------|


        llevame al mundo donde pueda soñar uuuuuuuu debo saver si en verdad
e|-----------------------------------------------------------------------------------------------|
B|---------------3-----------------3---------2---------------3-----------------3------------3----|
G|-------------3-----------------4---------3---------------4-----------------4------------3------|
D|-----------3-----------------5---------4---------------4-----------------5------------3--------|
A|---------0-----------------5---------4---------------2-----------------5------------0----------|
E|-----------------------------------------------------------------------------------------------|

    en algun lado estas voy a buscarrr una señalll una cancion
e|----------------------------------------------------------------------------------------|
B|-----------3-----------------------3----------------3----------3--------------------3---|
G|---------4-----------------------4----------------4----------3--------------------4-----|
D|-------4-----------------------4----------------5----------3--------------------4-------|
A|-----2-----------------------2----------------5----------0--------------------2---------|
E|----------------------------------------------------------------------------------------|

        uuuuuuuuuu debo saber si en verdad en algun lado estas
e|------------------------------------------------------------------------------|
B|----------3-------------------3--------------3----------------------3---------|
G|--------4-------------------4--------------3----------------------4-----------|
D|------4-------------------5--------------3----------------------4-------------|
A|----2-------------------5--------------0----------------------2---------------|
E|------------------------------------------------------------------------------|

         solo el amor que tu me daassss me ayudara aaa aaa 
e|-----------------------------------------------------------2----0---3---2--|
B|---------3-------------2---------3-------------------------3----3---3---3--|
G|-------4-------------4---------3---------------------------4----3---4---4--|
D|-----4-------------5---------3-----------------------------4----3---5---4--|
A|---2-------------5---------0-------------------------------2----0---5---2--|
E|-----------------------------------------------------------2----0---3---2--|

   al amanecer mi imagen se va misteriosa mujer dejaste en mi 
e|----------------------------------------------------------------------------|
B|---------3----------------3-----------------3--------3---------------3------|
G|-------4----------------4-----------------3--------3---------------4--------|
D|-----4----------------4-----------------3--------3---------------4----------|
A|---2----------------2-----------------0--------0---------------2------------|
E|----------------------------------------------------------------------------|

    lujuria total hermosa y sensual corazon sin dios
e|-----------------------------------------------------------------------------|
B|------------3-----------------3-----------3------------------3---------3-----|
G|----------4-----------------3-----------3------------------4---------4-------|
D|--------5-----------------3-----------3------------------5---------5---------|
A|------5-----------------0-----------0------------------5---------5-----------|
E|-----------------------------------------------------------------------------|

     dame un lugar en este mundo tivio casi real
e|--------------------------------------------------------------------------------|
B|---------3--------3---------------3------------------3--------------3--------3--|
G|-------4--------4---------------3------------------4--------------4--------4----|
D|-----4--------4---------------3------------------5--------------5--------5------|
A|---2--------2---------------0------------------5--------------5--------5--------|
E|--------------------------------------------------------------------------------|

        debere buscar una señal en aquel camino
e|-----------------------------------------------------------------------------|
B|---------3---------3------------------3-------3--------------------3-----3---|
G|-------4---------4------------------4-------4--------------------3-----4-----|
D|-----5---------5------------------4-------4--------------------3-----5-------|
A|---5---------5------------------2-------2--------------------0-----5---------|
E|-----------------------------------------------------------------------------|

    por el que vas uuuuuuuuuuuu debo saver si en verdad en algun lado estas
e|--------------------------------------------------------------------------------------|
B|----------3----3-------------3---------------3---------3-------------------3----------|
G|--------4----4-------------4---------------4---------3-------------------4------------|
D|------4----4-------------4---------------5---------3-------------------4--------------|
A|----2----2-------------2---------------5---------0-------------------2----------------|
E|--------------------------------------------------------------------------------------|

       voy a buscar una señal una cancion uuuuuuuuuuuu debo saver si en verdad 
e|----------------------------------------------------------------------------------------------|
B|---------3-----------------3---------------3-----3-------------3----------------3--------3----|
G|-------4-----------------4---------------3-----4-------------4----------------4--------3------|
D|-----4-----------------5---------------3-----4-------------4----------------5--------3--------|
A|---2-----------------5---------------0-----2-------------2----------------5--------0----------|
E|----------------------------------------------------------------------------------------------|

    en algun lado estas solo el amor que tu me dasssss aaaaaaaaaa
e|--------------------------------------------------------------------2---0---3-----|
B|-----------3----------------3------------------3-------3------------3---3---3-----|
G|---------4----------------4------------------4-------3--------------4---3---4-----|
D|-------4----------------4------------------5-------3----------------4---3---5-----|
A|-----2----------------2------------------5-------0------------------2---0---5-----|
E|--------------------------------------------------------------------2---0---3-----|

SOLO:

Este es primer solo que va en el centro de la cancion aqui les va.....

e|---7--7--7--5--3------------------7/14--12--10--12--10----------------------------|
B|------------------5--6--5--3--5----------------------------12---14---15--14--12---|
G|----------------------------------------------------------------------------------|
D|----------------------------------------------------------------------------------|
A|----------------------------------------------------------------------------------|
E|----------------------------------------------------------------------------------|

e|---14--15--14--12------------------------------------------------------------------|
B|--------------------15---14--15/17/15---14---12---10-------------------------------|
G|------------------------------------------------------12---11---9---12---12---11---|
D|-----------------------------------------------------------------------------------|
A|-----------------------------------------------------------------------------------|
E|-----------------------------------------------------------------------------------|

e|-------------7---9---10/12/14/15/17----19----------17/19/17/9--------17/19---19/21-|
B|---------------------------------------------15-----------------15-----------------|
G|----9---11-------------------------------------------------------------------------|
D|-----------------------------------------------------------------------------------|
A|-----------------------------------------------------------------------------------|
E|-----------------------------------------------------------------------------------|

e|----19---21---22---21---19---------------------------------------------------------|
B|------------------------------18/19----19---19----20----22----22---20----19---17---|
G|-----------------------------------------------------------------------------------|
D|-----------------------------------------------------------------------------------|
A|-----------------------------------------------------------------------------------|
E|-----------------------------------------------------------------------------------|

e|--------------------18/19/18---19---18---19----18----19/21---21----21---21----19---|
B|-----19/20/19--17------------------------------------------------------------------|
G|-----------------------------------------------------------------------------------|
D|-----------------------------------------------------------------------------------|
A|-----------------------------------------------------------------------------------|
E|-----------------------------------------------------------------------------------|

ESTO ES CASI TODO LO QUE PUDE ESCRIBIRLE CUANDO TENGA BIEN HECHA LA SEGUNDA
PARTE NO DUNDE QUE YO SE LAS MANDO BUENO APROBECHANDO ESTO LE MANDO UN
SALUDO A VICTOR SANCHES POR EL TOQUE ESPERO LE VALLA SUPER Y EL TOQUE EN
GUATE ESPERO LE VALLA IGUAL Y A TODOS LOS DEMAS DE ESE BUEN GRUPO,
BUENO YA SABEN NO DUDEN EN ESCRIBIRME SI DESEA UN GRUPO DE XELA O MAZATE
O SAN MARCOS O SIMILARES NO DUDEN EN DARME SUS PROPUESTAS TALVEZ TOQUE CON ALGUN
EXELENTE GRUPO QUE HAY EN TODO GUATE, ESTO ES TODO Y NO OLVIDEN QUE LES
PUEDO MANDAR CUALQUIER OTRA ROLA SOLO ME DISEN DE QUE GRUPO O QUE CANCION
Y YO SE LAS MANDO.

            
            
Suggest correction
Creating personal tab
Creating personal tab
You can edit any tab online and save it as your Personal.

You can edit, replace or remove any tab part or add personal notes – all changes will be seen only by you.

Personal tabs can be accessed anytime from any device, even offline.
Learn more »
Give kudos to tab author, rate the tab!
1 2 3 4 5
comments
print report bad tab
guest
Wanna post a correction for this tab? Suggest correction