Oops, an error
Loading. Please wait.

La Calaka tab

by Ratio
32 views 1 this week
no commentswrite comment
1 2 3 4 5
3 more votes to show rating
add to favorites
×
Save as Personal and add changes to this tab that will be seen only by you. Learn more ›
×
You can save this tab as Personal to edit and correct it or add notes. All changes will be seen only by you. Learn more »
launch autoscroll
font size
0
reset
how to read this tab
guitar tuner
edit
Autoscroll
slow
fast
+/-
esc
set tempo
stop
                        Letras y arreglos:Ricky,Juan y Price
LA Calaka.      RATIO

intro
   B          A        G        F#        B       B    D    D    D      G      F#   Postintro                                                                                         
-------------------------------------------------------------------------------------------------------------------------------------------------------------------
-------------------------------------------------------------------------------------------------------------------------------------------------------------------
---4--------2--------------------------4-------4__7----7----7------------------------------------------------------------------------------------------------
---4--------2-------5--------4--------4-------4__7----7----7-----5------4---------------------------------------------------------------------------------
---2--------0-------5--------4--------2-------2__5----5----5-----5------4-----5-5--4-4--------------------5-5--4-4----------------------------------
---------------------3--------2----------------------------------------3------2------------------5-5--4-4-4-4---------------5-5--4-4-4-4----------------

Riff 1     Èste Riff se toca dos veces despues del intro y en la ùltima vez se dejan las notas del ùltimo acorde sin callarlas
             Entre la primera y la segunda repetidiòn se toca E# con palm muting en 16 rasgueos ràpidos.

     D           C#           A            G#                  D            C#         A             G#
-----------------------------------------ah-------------------------------------------------------------------------------------------------------------------------
----------------------------------------------(PM)-----------------------------------------------------------------------------------------------------------------
-----------------------------------------------------------------------------------------------ah-(PM)---------------------------------------------------------
-----7-7-7-7--6-6-6-6----------------------------------7-7-7-7--6-6-6-6------------------------------------------------------------------------------------
-----5-5-5-5--4-4-4-4--7-7-7-7---------6-6-6------5-5-5-5--4-4-4-4--7-7-7-7-------6-6-6----------------------------------------------------------
----------------------------5-5-5-5---4----4-4-4------------------------------5-5-5-5--4---4-4-4-----------------------------------------------------------

E          Riff 2 Èste riff se toca durante los pàrrafos de la letra y en el coro es igual solo que con palm muting y sin los slides
--------------------------------------------------------------------------------------------------------------------------------------------------------------------
-------------------------------------------------(    P  M   )-----------------------------------------------------------------------------------------------------
--(PM)-------2-2------2__3__2----2-2-----------------------2-2-----2__3__2----------(    P M   )---------------------------------------------------
---------------2-2------2__3__2----2-2----2-3-2-5-3-------2-2-----2__3__2--2-2--------------------------------------------------------------------
--2-2-2------0-0--0---0-------------0-0----0-0-0-0-0-------0-0--0--0------------0-0----0-5-0-3-2----------------------------------------------------
--0-0-0-------------------------------------------------------------------------------------------0-3-0-1-0----------------------------------------------------

Riff 3    Èste Riff se toca una vez despuès del coro.
--------------------------------------------------------------------------------------------------------------------------------------------------------------------
--------------------------------------------------------------------------------------------------------------------------------------------------------------------
--------------------------------------------------------------------------------------------------------------------------------------------------------------------
----2-3-2------------------2-3-2----------------2-3-2----------------2-3-2----------------------------------------------------------------------------------
----0-1-0---3-5-----------0-1-0--5-3---------0-1-0--3-5----------0-1-0-3-5-----2----------------------------------------------------------------------
--------------1-3--------------------3-1------------------1-3------------------3-1-----0----------------------------------------------------------------------

Solo           Durante èste solo se toca el Riff2
---------------------------------------------------------------------------------------------------------------------------------------------------------------------------------------------------------------------------
--------14------------------15------------------14-----------------15------17---------------14----------------15------------------14----------------15-------17-----------------------------------------------
----14----14----14----15----15---15----14----14---14----15------17------15-----14----14---14---15---15----15----14---14---14---15-------17-------15----------------------------------------
-14-----------14----15-----------15---14-----------14----15------17------15-----14----------14---15----------15----14----------14---15-------17-------15-------------------------------------------
---------------------------------------------------------------------------------------------------------------------------------------------------------------------------------------------------------------------------
---------------------------------------------------------------------------------------------------------------------------------------------------------------------------------------------------------------------------

----------------------------------------------------------------------------------------------------------------------------------------------------------------------------------------------------------------------------
-17_15----17_15---17_15---17_15---17_15----17_15----17_15---17_15----17_15---17_15---19-17----19-17---19-17---19-17----21-18---21-18---21-18---21-18---21-18-------
---------16---------16--------16--------16--------16----------15--------15---------15--------15--------15--------17--------17-------17--------17--------19-------19-------19--------19-------19----
-----------------------------------------------------------------------------------------------------------------------------------------------------------------------------------------------------------------------------
-----------------------------------------------------------------------------------------------------------------------------------------------------------------------------------------------------------------------------
-----------------------------------------------------------------------------------------------------------------------------------------------------------------------------------------------------------------------------

-------------------------------------------------14----14-17-14-17______19_____/-----------------------------------------------------------------------------------------------------------------------------
---19_____/-----------------------16---16----16---------------------------------------------------------------------------------------------------------------------------------------------------------------------
---------------------------17-14-17---17-------------------------------------------------------------------------------------------------------------------------------------------------------------------------------
-----------------------------------------------------------------------------------------------------------------------------------------------------------------------------------------------------------------------------
-----------------------------------------------------------------------------------------------------------------------------------------------------------------------------------------------------------------------------
-----------------------------------------------------------------------------------------------------------------------------------------------------------------------------------------------------------------------------

Despuès del Solo se vuelve a tocar el coro y el Riff 3 solo que al ùltimo se espacìan mas los cuatro acordes finales.

            
            
Suggest correction
Creating personal tab
Creating personal tab
You can edit any tab online and save it as your Personal.

You can edit, replace or remove any tab part or add personal notes – all changes will be seen only by you.

Personal tabs can be accessed anytime from any device, even offline.
Learn more »
Give kudos to tab author, rate the tab!
1 2 3 4 5
comments
print report bad tab
guest
Wanna post a correction for this tab? Suggest correction