Oops, an error
Loading. Please wait.
We have an official Looking For Love tab made by UG professional guitarists. Check out the tab »
×
by Ratt
1,599 views 6 this week
no commentswrite comment
1 2 3 4 5
1 last vote to show rating
add to favorites
×
Save as Personal and add changes to this tab that will be seen only by you. Learn more ›
×
You can save this tab as Personal to edit and correct it or add notes. All changes will be seen only by you. Learn more »
launch autoscroll
font size
0
reset
how to read this tab
guitar tuner
edit
Autoscroll
slow
fast
+/-
esc
set tempo
stop
Author
Difficulty
|------------||----------------|------------------|-----------------|
|------------||----------------|------------------|-----------------|
|------------||----------------|------------------|-----------------|
|------------||----------------|------------------|-----------------|
|------------||-2--------2h3---|-----------2------|-2--------2h3----|
|------x-x--||-0--2h3-0-----0-|-2-3-0-2-3---3b4--|-0--2h3-0-----0--|


                          PM    PM------|       ~~~           PM    PM
|-------------|-------------------|------------------|----------------|
|-------------|-------------------|------------------|----------------|
|-------------|-------------------|------------------|----------------|
|-------------|-------------------|------------------|----------------|
|-4-5-4-------|-------------2h3---|-----------2------|-2--------2h3---|
|-2-3-2-----0-|-(0)-0-2h3-0-----0-|-2-3-0-2-3---3b4--|-0--2h3-0-----0-|


                 Verse
              $
|-------------||--------0--(0)----|-(0)------(0)----|----------|
|-------------||o-------0--(0)----|-(0)------(0)-10-|--10-8----|
|-----------2-||--(2)-------------|---------------9-|---9-7----|
|-----------2-||--(2)---x--(x)----|-(x)------(x)--7-|---7-5----|
|-4-5-4-----0-||o-(0)---x--(x)----|-(x)------(x)----|----------|
|-2-3-2-------||------3p0--(0)----|-(0)------(0)----|----------|


|-------------|-------0--(0)----|-(0)------(0)----|----------|
|-(8)---------|-------0--(0)----|-(0)------(0)-10-|--10-8----|
|-(7)-------2-|-(2)-------------|---------------9-|---9-7----|
|-(5)-------2-|-(2)---x--(x)----|-(x)------(x)--7-|---7-5----|
|-----------0-|-(0)---x--(x)----|-(x)------(x)----|----------|
|-------------|-----3p0--(0)----|-(0)------(0)----|----------|


  1.
                      PM        PM------|   ~~~
|------------|----------------|------------------|
|-(8)--------|----------------|------------------|
|-(7)--------|----------------|------------------|
|-(5)--------|----------------|------------------|
|------------|-2--------2h3---|-----------2------|
|------------|-0--2h3-0-----0-|-2-3-0-2-3---3b4--|


         PM    PM
|----------------|--------------||
|----------------|-------------o||
|----------------|-----------2--||
|----------------|-----------2--||
|-2--------2h3---|-4-5-4-----0-o||
|-0--2h3-0-----0-|-2-3-2--------||


              Chorus
  2.
|------------|--------------|----------------|----------------|
|-(8)--------|--------------|----------------|----------------|
|-(7)--------|------------7-|-(7)----7-7-7-5-|-(5)----------7-|
|-(5)--------|-5----5-5-5-7-|-(7)----7-7-7-5-|-(5)----3-5-5-7-|
|------------|-5----5-5-5-5-|-(5)----5-5-5-3-|-(3)----3-2-3-5-|
|------------|-3----3-3-3---|----------------|----------------|


                                                           To Coda
|----------------|----------------|----------------|----------------|
|----------------|----------------|----------------|----------------|
|-(7)--7--7-7----|--------------7-|-(7)----7-7-7-5-|-(5)----------7-|
|-(7)--7--7-7--5-|-(5)--5--5-5--7-|-(7)----7-7-7-5-|-(5)----5-5-x-7-|
|-(5)--5--5-5--5-|-(5)--5--5-5--5-|-(5)----5-5-5-3-|-(3)----3-2-x-5-|
|--------------3-|-(3)--3--3-3----|----------------|----------------|


                                                               D.S. al Coda
|----------------|-----------|-----------------|----------|----------------|
|--------------8-|--8-9------|-(9)------(9)-10-|--10-8----|----------------|
|-(7)--7--7-7--7-|--7-9------|-(9)------(9)--9-|---9-7----|--9-7-6-7-6-7---|
|-(7)--7--7-7----|-----------|---------------7-|---7-5----|--7-5p4-5p4-5-2-|
|-(5)--5--5-5----|-----------|-----------------|----------|--------------2-|
|----------------|-----------|-----------------|----------|--------------0-|


  &
                             PM    PM--------|                  PM    PM
|-----------------||-----------------|----------------|-----------------|
|-----------------||-----------------|----------------|-----------------|
|-(7)-x-7-x-7-7---||-----------------|---------3-3----|-----------------|
|-(7)-x-7-x-7-7---||-----------------|---------0-2----|-----------------|
|-(5)-x-5-x-5-5---||-----------2-3---|---------0-0----|-----------2-3---|
|-----------------||-0-0-2-3-0-----0-|-2-3-2-0-3----0-|-0-0-2-3-0-----0-|


                  Guitar Solo
        PM                     ~~~
|----------------|---------------------|
|----------------|-5-----------------5-|
|----------------|---7b9-(7)--(7)--7---|
|------------/x-|---------------------|
|------------/x-|---------------------|
|-2-3-2-0--------|---------------------|


                                                                1
                        ~~~
|--------------------------------|----------------------------------|
|--------------------------------|----------------------------------|
|-7b9--(7)-(7)-(7)-(7)-(7)-7-5-7-|-7b9r(7)-(7)-5-7-5b7-(5)-(5)-(5)--|
|--------------------------------|----------------------------------|
|--------------------------------|----------------------------------|
|--------------------------------|----------------------------------|


                   ~~~
|----------------------5------|-----5--------------5----------5-----|
|----------------------5-8b10-|-(8)---8p5-8b10-(8)---8p5-8b10---8p5-|
|-(5)-(5)-(5)-----------------|-------------------------------------|
|-------------7-7-(7)---------|-------------------------------------|
|-----------------------------|-------------------------------------|
|-----------------------------|-------------------------------------|


|------5--------------5-8p5---5--------|
|-8b10---8p5-8b10-(8)-------8---8p5----|
|-----------------------------------5--|
|--------------------------------------|
|--------------------------------------|
|--------------------------------------|


                    ~
|-----------------------------------|----------------------------17----|
|-5---5-----------------------13-15-|-15b17r==(15)-13---------17----17-|
|---8---8-7p5---5-7S9--(9)-12-------|-----------------14S(19)----------|
|-------------7---------------------|----------------------------------|
|-----------------------------------|----------------------------------|
|-----------------------------------|----------------------------------|


|--------------------------------------|
|-20pb25==(20)-(20)--(20)-(20)-(20)-17-|
|--------------------------------------|
|--------------------------------------|
|--------------------------------------|
|--------------------------------------|


|------------17-------------------------------|
|---------------20p17----17-------------------|
|-19b21-(20)----------20----20-19-17----17-19-|
|------------------------------------19-------|
|---------------------------------------------|
|---------------------------------------------|


              ~~                             ~~~~~
|------------------0-22b24-|-(22)--22-22b24-22b24--19-20--|
|------------------0-------|------------------------------|
|-19b22-(21)-19------------|------------------------------|
|--------------------------|------------------------------|
|--------------------------|------------------------------|
|--------------------------|------------------------------|


|22-20-19-20-19-20-22-20-19-20-19-20-|-22-20-19-20-19----19---------------||
|------------------------------------|----------------22----22-20-22-20-19||
|------------------------------------|------------------------------------||
|------------------------------------|------------------------------------||
|------------------------------------|------------------------------------||
|------------------------------------|------------------------------------||


   Chorus
      ~~~~
||--(20)------------|----------------|----------------|-----------------|
||o-----------------|----------------|----------------|-----------------|
||----------------7-|-(7)----7-----5-|-(5)----------7-|-(7)--7--7-7-----|
||----5-----5-5-5-7-|-(7)----7-----5-|-(5)----5-5-x-7-|-(7)--7--7-7--5--|
||o---5-----5-5-5-5-|-(5)----5-0-2-3-|-(3)----3-2-x-5-|-(5)--5--5-5--5--|
||----3-----3-3-3---|----------------|----------------|--------------3--|


|------------------|----------------|--------------|------------------|
|------------------|----------------|--------------|------------------|
|----------------7-|-(7)----7-7-x-5-|-(5)------x-7-|-(7)-x-7----------|
|-(5)----(5)-5-5-7-|-(7)----7-7-x-5-|-(5)------x-7-|-(7)-x-7--7-7-7-x-|
|-(5)----(5)-5-5-5-|-(5)----5-5-x-3-|-(3)------x-5-|-(5)-x-5--5-5-5-x-|
|-(3)----(3)-3-3---|----------------|--------------|------------------|


                                     Outro
  1.                                  2.
  Gtr II                              Gtr II
         PM    PM        PM
|----------------|-----------------||------------||
|----------------|----------------o||------------||
|----------------|---------3-3-----||------------||
|----------------|---------0-2--5--||------------||
|-2--------2h3---|---------0-0--5-o||------------||
|-0--2h3-0-----0-|-2h3-2-0-3----3--||------------||
|
| Gtr I                               Gtr I
|        PM    PM        PM
|----------------|-----------------||------------||
|----------------|----------------o||----------8-||
|----------------|---------3-3-----||-----x---7-||
|----------------|---------0-2--5--||----------5-||
|-2--------2h3---|---------0-0--5-o||------------||
|-0--2h3-0-----0-|-2h3-2-0-3----3--||------------||


          PM    PM
|-----------------|----------3-2------|
|-----------------|----------3-3------|
|-----------------|----------0-2------|
|-----------------|----------0-0------|
|-2---------2-3---|---------------(2)-|
|-0---2-3-0-----0-|--2--3-0--3-----0--|
|
|-----------------|-------------------|
|---8-------------|---------------10--|
|---7-9-----------|-(9)------------9--|
|---5-9-----------|-(9)------------7--|
|-----7-----------|-------------------|
|-----------------|-------------------|


             PM    PM
|--------------------|-----------3-2------|
|--------------------|-----------3-3------|
|--------------------|-----------0-2------|
|--------------------|-----------0-0------|
|-(2)----------2-3---|----------------(2)-|
|-(0)----2-3-0-----0-|--2--3-2-0-3-----0--|
|
|--------------------|--------------------|
|-----10-8-----------|-(8)-------------8--|
|------9-7-----------|-(7)-------------7--|
|------7-5-----------|-(5)-------------5--|
|--------------------|--------------------|
|--------------------|--------------------|


            PM    PM
|-------------------|-----------3-2------|
|-------------------|-----------3-3------|
|-------------------|-----------0-2------|
|-------------------|-----------0-0------|
|-(2)---------2-3---|----------------(2)-|
|-(0)---2-3-0-----0-|--2--3-2-0-3-----0--|
|
|-------------------|--------------------|
|-----8-------------|----------------10--|
|-----7-9-----------|-(9)-------------9--|
|-----5-9-----------|-(9)-------------7--|
|-------7-----------|-(7)----------------|
|-------------------|--------------------|


             PM    PM
|--------------------|-----------3-2------||
|--------------------|-----------3-3------||
|--------------------|-----------0-2------||
|--------------------|-----------0-0------||
|-(2)----------2-3---|----------------(2)-||
|-(0)----2-3-0-----0-|--2--3-2-0-3-----0--||
|
|--------------------|--------------------||
|-----10-8-----------|-(8)-------------8--||
|------9-7-----------|-(7)-------------7--||
|------7-5-----------|-(5)-------------5--||
|--------------------|--------------------||
|--------------------|--------------------||


  Gtr I
            PM    PM
|-------------------|-----------3-2------|
|-------------------|-----------3-3------|
|-------------------|-----------0-2------|
|-------------------|-----------0-0------|
|-(2)---------2-3---|----------------(2)-|
|-(0)---2-3-0-----0-|--2--3-2-0-3-----0--|
|
| Gtr II
|-------------------|--------------------|
|-----8-------------|----------------10--|
|-----7-9-----------|-(9)-------------9--|
|-----5-9-----------|-(9)-------------7--|
|-------7-----------|-(7)----------------|
|-------------------|--------------------|


             PM    PM
|--------------------|-----------3-2-------|
|--------------------|-----------3-3-------|
|--------------------|-----------0-2-------|
|--------------------|-----------0-0-------|
|-(2)----------2-3---|-----------------(2)-|
|-(0)----2-3-0-----0-|--2--3-2-0-3------0--|
|
|                                       ~~~
|--------------------|---------------------|
|-----10-8-----------|-(8)-----------8-----|
|------9-7-----------|-(7)--------------9--|
|------7-5-----------|-(5)-----------------|
|--------------------|---------------------|
|--------------------|---------------------|


                PM     PM
|------------------------|---------3--2-------------------------|
|------------------------|---------3--3-------------------------|
|------------------------|---------0--2-------------------------|
|------------------------|---------0--0-------------------------|
|-(2)--------------2-3---|----------------------------(2)-------|
|-(0)--2-----3--0------0-|-2-3-2-0-3-------------------0--------|
|
|------------------------|--------------------------------------|
|------8b8.5---(8)-------|-----------10-10------------10--------|
|-(9)--------------------|-----------------12b14-(12)-----12b14-|
|------------------------|--------------------------------------|
|------------------------|--------------------------------------|
|------------------------|--------------------------------------|


                                  PM     PM
|------------------------------------------|---------3-2------|
|------------------------------------------|---------3-3------|
|------------------------------------------|---------0-2------|
|------------------------------------------|---------0-0------|
|--(2)-------------------------------2-3---|--------------(2)-|
|--(0)---------2---------3--------0------0-|-2-3-2-0-3-----0--|
|
|                                 ~~~~
|------------------------------------------|------------------|
|------10----------------------------------|------------------|
|-(12)----12-(12)-10b12r10-(10)-(10)-------|------------------|
|------------------------------------------|------------------|
|------------------------------------------|------------------|
|------------------------------------------|------------------|


                                 PM                      PM
|----------------------------------------------------------|--------3-2----|
|----------------------------------------------------------|--------3-3----|
|----------------------------------------------------------|--------0-2----|
|----------------------------------------------------------|--------0-0----|
|-(2)-------------------------------------2-----3----------|------------(2)|
|-(0)-------------2--------3-----0-----------------------0-|2-3-2-0-3----0-|
|
|------12-------------12-------------12------------12------|---------------|
|---------15p12----------15p12----------15p12---------15p12|----------15b16|
|14b16----------14b16----------14b16----------14b16--------|---------------|
|----------------------------------------------------------|---------------|
|----------------------------------------------------------|---------------|
|----------------------------------------------------------|---------------|


                          PM                   PM
|------------------------------------------------|-----------3-2-----------|
|------------------------------------------------|-----------3-3-----------|
|------------------------------------------------|-----------0-2-----------|
|------------------------------------------------|-----------0-0-----------|
|(2)------------------------------2-------3------|----------------(2)------|
|(0)------------2-----3---0--------------------0-|--2--3-2-0-3-----0-------|
|
|------------------------------------------------|-------------------------|
|15pb17==(15)r(15)b17r==(15)b17r(15)b17-(15)-(15)|(15)-----------20b24-(20)|
|------------------------------------------------|-------------------------|
|------------------------------------------------|-------------------------|
|------------------------------------------------|-------------------------|
|------------------------------------------------|-------------------------|


            PM    PM
|-------------------|---------3-2---------|
|-------------------|---------3-3---------|
|-------------------|---------0-2---------|
|-------------------|---------0-0---------|
|--(2)--------2-3---|--------------(2)----|
|---0---2-3-0-----0-|-2-3-2-0-3-----0-----|
|
|   ~~~~
|-------------------|---------------------|
|-(20)--------------|--------------15--19-|
|-------------------|---------------------|
|-------------------|---------------------|
|-------------------|---------------------|
|-------------------|---------------------|


                            PM                PM
|--------------------------------------------------*|
|--------------------------------------------------*|
|--------------------------------------------------*|
|--------------------------------------------------*|
|-(2)-----------------------------2-----3----------*|
|-(0)-----------2-----3-----0-----------------0----*|
|
|-15--19-18----------------15-19-15----------------*|
|-----------19-20-19-15-19----------19-20-19-15-19-*|
|--------------------------------------------------*|
|--------------------------------------------------*|
|--------------------------------------------------*|
|--------------------------------------------------*|

            
            
Suggest correction
Creating personal tab
Creating personal tab
You can edit any tab online and save it as your Personal.

You can edit, replace or remove any tab part or add personal notes – all changes will be seen only by you.

Personal tabs can be accessed anytime from any device, even offline.
Learn more »
Give kudos to tab author, rate the tab!
1 2 3 4 5
comments
print report bad tab
guest
You may want to rate the tab now too:
select rating
Wanna post a correction for this tab? Suggest correction