Oops, an error
Loading. Please wait.

Ghostbusters tab

version 2
version 2

Whole song

Interactive

12,680 views 1 this week
no commentswrite comment
1 2 3 4 5
x 3
add to favorites
×
Save as Personal and add changes to this tab that will be seen only by you. Learn more ›
×
You can save this tab as Personal to edit and correct it or add notes. All changes will be seen only by you. Learn more »
launch autoscroll
font size
0
reset
how to read this tab
guitar tuner
edit
Autoscroll
slow
fast
+/-
esc
set tempo
stop
Author
Difficulty
Tell me what you think of this tab, I hope it's alright, give mw your suggestons.

E|--------------------------------|--------------------------------|
B| 3 4 5-- 3 4 5-- 3 4 5 3-- 4 5 3|-- 4 5 3-- 4 5---------------- 3|
G|--------------------------------|---------------- 7 8 9-- 7 8 9--|
D|--------------------------------|--------------------------------|
A|---------------- 3------------ 2|--------------------------------|
E| 0------------------------------|---------------- 6--------------|

E|--------------------------------|--------------------------------|
B|-- 4 5-- 3 4 5------------------|--------------------------------|
G|---------------- 7 8 9-- 7 8 9--| 7 8 9-- 7 8 9-- 7 8 9-- 7 8 9--|
D|--------------------------------|--------------------------------|
A| 0--------------10--------------| 6------------------------------|
E|--------------------------------|--------------------------------|

E|--------------------------------|--------------------------------|
B|--------------------------------|---- 0-------- 3------ 2--------|
G| 7 8 9-- 7 8 9-- 7 8 9-- 7 8 9--|---- 1---------- 2------ 2------|
D|--------------------------------|---------------- 4------ 2------|
A|--------------------------------|---------- 0 2-- 5------ 0-- 0--|
E|--------------------------------| 0-- 0-- 4----------------------|

E|--------------------------------|--------------------------------|
B|---- 0-------- 3------ 2--------|---- 0-------- 3------ 2--------|
G|---- 1---------- 2------ 2------|---- 1---------- 2------ 2------|
D|---------------- 4------ 2------|---------------- 4------ 2------|
A|---------- 0 2-- 5------ 0-- 2--|---------- 0 2-- 5------ 0-- 0--|
E| 0-- 0-- 4----------------------| 0-- 0-- 4----------------------|

E|--------------------------------|-- 0-- 0------ 2----------------|
B|---- 0-------- 3------ 2--------|-- 0-- 5---- 5 3---- 3 2--------|
G|---- 1---------- 2------ 2------|-- 1---- 4-- 4-- 2-- 2 2--------|
D|---------------- 4------ 2------|------------ 6------ 4 2--------|
A|---------- 0 2-- 5------ 0-- 2--|---------------- 5-- 5-- 0-- 0--|
E| 0-- 0-- 4----------------------| 0-- 0-- 4 5 7------------------|

E|-------------------- 0----------|-- 0-- 0------ 2------ 7--------|
B|---- 0 5---- 5-- 3-- 3-- 2------|-- 0-- 5---- 5 3---- 3 5--------|
G|---- 1 4---- 4-- 2-- 2-- 2------|-- 1---- 4-- 4-- 2-- 2 6--------|
D|-------- 4-- 6-- 4------ 2------|------------ 6------ 4----------|
A|---------------- 5-- 5-- 0-- 2--|---------------- 5-- 5----------|
E| 0-- 0-- 4 5 7------------------| 0-- 0-- 4 5 7---------- 5-- 5--|

E| 7 7---------------- 2 0-- 0 0 4|---- 0-------------------- 0-- 0|
B|------------ 5-- 3-- 3 2-- 2 2--|-- 0-- 8------ 3---------- 2 3--|
G|-- 4-------- 4-- 2-- 2-- 2 2----|---- 1---------- 2------ 2-- 2--|
D|---- 6------ 6-- 4--------------|---------------- 4------ 2------|
A|---------------- 5-- 5-- 0 2----|---------------- 5------ 0 0----|
E| 0-- 0-- 4-- 7------------------| 0-- 0 4-- 5 7---------------- 0|

E|-- 0-- 0------------------------| 3 0-- 0-------------- 7--------|
B|-- 0-- 0------ 3------ 2--------|-- 0-- 0------ 3------ 5--------|
G|-- 1------------ 2------ 2------|---- 1---------- 2---- 6--------|
D|---------------- 4------ 2------|---------------- 4--------------|
A|---------------- 5------ 0-- 2--|---------------- 5--------------|
E|-- 0---- 4 5 7------------------| 0-- 0-- 4 5 7---------- 5-- 5--|

E| 7 7---------------- 2 0-- 0 0 4|---- 0-------------------- 0-- 0|
B|------------ 5-- 3-- 3 2-- 2 2--|-- 0-- 8------ 3---------- 2 3--|
G|-- 4-------- 4-- 2-- 2-- 2 2----|---- 1---------- 2------ 2-- 2--|
D|---- 6------ 6-- 4--------------|---------------- 4------ 2------|
A|---------------- 5-- 5-- 0 2----|---------------- 5------ 0 0----|
E| 0-- 0-- 4-- 7------------------| 0-- 0 4-- 5 7---------------- 0|

E|-- 0-- 0------------------------| 3 0-- 0-------------- 7--------|
B|-- 0-- 0------ 3------ 2--------|-- 0-- 0------ 3------ 5--------|
G|-- 1------------ 2------ 2------|---- 1---------- 2---- 6--------|
D|---------------- 4------ 2------|---------------- 4--------------|
A|---------------- 5------ 0-- 2--|---------------- 5--------------|
E|-- 0---- 4 5 7------------------| 0-- 0-- 4 5 7---------- 5-- 5--|

E| 7 7---------------- 2-- 0---- 3|------ 0---- 3------ 0-- 3------|
B|------------ 5-- 3-- 3-- 2------| 0---- 0---- 0------ 0-- 5---- 5|
G|-- 4-------- 4-- 2-- 2-- 2------| 0---- 0---- 0------ 0-- 4---- 4|
D|---- 6------ 6-- 4--------------|--------------------------------|
A|---------------- 5-- 5-- 0-- 2--|------------------------ 5------|
E| 0-- 0-- 4-- 7------------------| 0------------------------------|

E|---- 3-------- 3----------------|--------------------------------|
B|---- 5---- 5---- 5 5-- 3 4 5-- 8|------------ 8---------- 8 5-- 8|
G|---- 4------ 4-- 4-- 4-------- 9|------ 9---- 9---- 9---- 6-- 6 6|
D|------------------------------ 9|------ 9---- 9---- 9---- 5-- 5--|
A|--------------------------------|------------------------ 0------|
E|------------------------------ 9|--------------------------------|

E|------------------------------ 7|------------ 7-------- 7--------|
B|------ 5-- 5 5-- 5---- 3 4 5----| 8---- 8---- 8------ 8 8------ 8|
G|------ 6-- 6 6-- 6--------------| 7---- 7---- 7---- 7-- 7------ 7|
D| 5---- 5---- 5-- 5--------------|------ 9------------ 9-------- 9|
A|--------------------------------|--------------------------------|
E|--------------------------------| 0--------------------10--------|

E|---------------- 7------------ 7|------------ 7-------- 7------ 7|
B|---- 8---- 8---- 8-- 8-- 6 7 8 8|------ 8---- 8------ 8-- 8 8-- 8|
G|---- 7---- 7---- 7-- 7----------| 9---- 9---- 9------ 9-- 6 6-- 6|
D|---------- 9-------- 9----------|------ 9------------ 9----------|
A|--------------------------------|------------------------ 0------|
E|--------------------------------| 9------------------------------|

E|----------------------12--------|--------------------------------|
B|---- 8-- 8 8-- 8------10--------|---- 0-------- 3------ 2--------|
G|---- 6---- 6-- 6---- 8 9--------|---- 1---------- 2------ 2------|
D|--------------------------------|---------------- 4------ 2------|
A|--------------------------------|---------- 0 2-- 5------ 0-- 0--|
E|--------------------------------| 0-- 0-- 4----------------------|

E|--------------------------------|-- 0-- 0------ 2----------------|
B|---- 0-------- 3------ 2--------|-- 0-- 5---- 5 3---- 3 2--------|
G|---- 1---------- 2------ 2------|-- 1---- 4-- 4-- 2-- 2 2--------|
D|---------------- 4------ 2------|------------ 6------ 4 2--------|
A|---------- 0 2-- 5------ 0-- 2--|---------------- 5-- 5-- 0-- 0--|
E| 0-- 0-- 4----------------------| 0-- 0-- 4 5 7------------------|

E|-------------------- 0 0-- 0 0 4|---- 0-------------------- 0-- 0|
B|---- 0 5---- 5-- 3-- 3 2-- 2 2--|-- 0-- 8------ 3---------- 2 3--|
G|---- 1 4---- 4-- 2-- 2-- 2 2----|---- 1---------- 2------ 2-- 2--|
D|-------- 4-- 6-- 4--------------|---------------- 4------ 2------|
A|---------------- 5-- 5-- 0 2----|---------------- 5------ 0 0----|
E| 0-- 0-- 4 5 7------------------| 0-- 0 4-- 5 7---------------- 0|

E|-- 0-- 0------------------------| 3 0-- 0-------------- 7--------|
B|-- 0-- 0------ 3------ 2--------|-- 0-- 0------ 3------ 5--------|
G|-- 1------------ 2------ 2------|---- 1---------- 2---- 6--------|
D|---------------- 4------ 2------|---------------- 4--------------|
A|---------------- 5------ 0-- 2--|---------------- 5--------------|
E|-- 0---- 4 5 7------------------| 0-- 0-- 4 5 7---------- 5-- 5--|

E| 7 7---------------- 2 0-- 0 0 4|---- 0-------------------- 0-- 0|
B|------------ 5-- 3-- 3 2-- 2 2--|-- 0-- 8------ 3---------- 2 3--|
G|---- 4------ 4-- 2-- 2-- 2 2----|---- 1---------- 2------ 2-- 2--|
D|---- 6------ 6-- 4--------------|---------------- 4------ 2------|
A|---------------- 5-- 5-- 0 2----|---------------- 5------ 0 0----|
E| 0-- 0-- 4-- 7------------------| 0-- 0 4-- 5 7---------------- 0|

E|-- 0-- 0------------------------| 3 0-- 0-------------- 7--------|
B|-- 0-- 0------ 3------ 2--------|-- 0-- 0------ 3------ 5--------|
G|-- 1------------ 2------ 2------|---- 1---------- 2---- 6--------|
D|---------------- 4------ 2------|---------------- 4--------------|
A|---------------- 5------ 0-- 2--|---------------- 5--------------|
E|-- 0---- 4 5 7------------------| 0-- 0-- 4 5 7---------- 5-- 5--|

E| 7 7---------------- 2-- 0------|--------------------------------|
B|------------ 5-- 3-- 3-- 2------|------ 8-------- 7------------ 8|
G|-- 4-------- 4-- 2-- 2-- 2---- 9|-- 7---- 7------ 7------ 7---- 7|
D|---- 6------ 6-- 4--------------| 9 7-- 7-------- 7------ 7---- 7|
A|---------------- 5-- 5-- 0-- 2--| 7-- 5--------------------------|
E| 0-- 0-- 4-- 7------------------|--------------------------------|

E|---------- 0-- 0----------------|--------------------------------|
B|---- 5-- 5 0-- 0----------------|------ 7-------------- 5--------|
G|---- 7-- 7 9-- 9-------------- 9|---- 7 7------ 7----------------|
D|------------------------------ 9|-- 7-- 7------ 7----------------|
A|------------------------------ 7|---- 5--------------------------|
E|---------- 0---- 0--------------|--------------------------------|

E|--------------------------------|--------------------------------|
B|------ 0------------------------|------ 5---- 7 8---- 5-------- 8|
G|-- 2 0---- 0-- 1-------------- 9|---- 7 7---- 7 7-- 7 7-------- 7|
D|------------------------------ 9|---- 7 7-------- 7-- 7-------- 7|
A|--------------------------------| 7-- 5--------------------------|
E|------------ 0------------------|--------------------------------|

E|---------- 0-- 0----------------|------ 2-------------- 5--------|
B|---- 5-- 5 0-- 0----------------|------ 3------ 3------ 3------ 8|
G|---- 7-- 7 9-- 9----------------|-------------- 2-------------- 6|
D|---- 7--------------------------|---------- 2-------- 2------ 2 5|
A|--------------------------------|--------------------------------|
E|---------- 0---- 0------------ 0|---- 3------------------------ 5|

E|--------------------------------|-- 0-- 0------ 2----------------|
B|------ 7------ 5-------- 2------|-- 0-- 5---- 5 3---- 3 2--------|
G|------ 6-------- 5------ 2------|-- 1---- 4-- 4-- 2-- 2 2--------|
D|-------- 5------ 4------ 2------|------------ 6------ 4 2--------|
A|---------------- 5------ 4------|---------------- 5-- 5-- 0-- 0--|
E|-------- 5----------------------| 0-- 0-- 4 5 7------------------|

E|-------------------- 0----------|-- 0-- 0------ 2------ 7--------|
B|---- 0 5---- 5-- 3-- 3-- 2------|-- 0-- 5---- 5 3---- 3 5--------|
G|---- 1 4---- 4-- 2-- 2-- 2------|-- 1---- 4-- 4-- 2-- 2 6--------|
D|-------- 4-- 6-- 4------ 2------|------------ 6------ 4----------|
A|---------------- 5-- 5-- 0-- 2--|---------------- 5-- 5----------|
E| 0-- 0-- 4 5 7------------------| 0-- 0-- 4 5 7---------- 5-- 5--|

E| 7 7---------------- 2 0-- 0 0--|-- 3----------------------------|
B|------------ 5-- 3-- 3 2-- 2 2--|-- 0------ 8-- 8---- 5---- 3----|
G|-- 4-------- 4-- 2-- 2-- 2 2----|-- 1------ 9-- 7---- 7---- 2----|
D|---- 6------ 6-- 4--------------|---------- 9-- 7---- 7---- 2----|
A|---------------- 5-- 5-- 0 2----|-------------- 5-- 5-- 0-- 0----|
E| 0-- 0-- 4-- 7---------------- 0|------ 4 5 7------------------ 0|

E|-- 3-------------------------- 0|-- 0-- 0-------------- 7--------|
B|-- 0------ 8-- 8---- 5---- 3-- 3| 3 0-- 0------ 3------ 5--------|
G|-- 1------ 9-- 7---- 7---- 2-- 1|---- 1---------- 2---- 6--------|
D|---------- 9-- 7---- 7---- 2----|---------------- 4--------------|
A|-------------- 5-- 5-- 0-- 0----|---------------- 5--------------|
E|------ 4 5 7------------------ 0|---- 0-- 4 5 7---------- 5-- 5--|

E| 7 7---------------- 2 0-- 0 0--|--------------------------------|
B|------------ 5-- 3-- 3 2-- 2 2--|------ 3---- 3---- 3---- 3------|
G|---- 4------ 4-- 2-- 2-- 2 2----|------ 2---- 2---- 2---- 2------|
D|---- 6------ 6-- 4--------------|------ 1---- 1---- 1---- 1------|
A|---------------- 5-- 5-- 0 2-- 2|-- 2---------------- 2----------|
E| 0-- 0-- 4-- 7------------------|--------------------------------|

E|--------------------------------|--------------------------------|
B|-------- 8-- 8-- 7------ 3------|------ 3------ 3-- 3---- 3----10|
G|-------- 8------ 8------ 2------|------ 2------ 2-- 2---- 2---- 8|
D|-------- 7---- 7------------ 1--|------ 1------ 1-- 1---- 1------|
A|------------------------ 2---- 2|---- 2-------------- 2----------|
E| 7-- 7------ 7------------------|--------------------------------|

E|-------------- 7-------------- 3|------ 0---- 3------ 0-- 3------|
B|---- 810---- 8 7----10-- 8 5----| 0---- 0---- 0------ 0-- 5---- 5|
G|---- 8-- 8-- 8 8---- 8-- 8------| 0---- 0---- 0------ 0-- 4---- 4|
D| 7------ 7-- 7-------- 7--------|--------------------------------|
A|--------------------------------|------------------------ 5------|
E| 7------ 7----------------------| 0------------------------------|

E|---- 3-------- 3----------------|--------------------------------|
B|---- 5---- 5---- 5 5-- 3 4 5-- 8|------------ 8---------- 8 5-- 8|
G|---- 4------ 4-- 4-- 4-------- 9|------ 9---- 9---- 9---- 6-- 6 6|
D|------------------------------ 9|------ 9---- 9---- 9---- 5-- 5--|
A|--------------------------------|------------------------ 0------|
E|------------------------------ 9|--------------------------------|

E|------------------------------ 7|------------ 7-------- 7--------|
B|------ 5-- 5 5-- 5---- 3 4 5----| 8---- 8---- 8------ 8 8------ 8|
G|------ 6-- 6 6-- 6--------------| 7---- 7---- 7---- 7-- 7------ 7|
D| 5---- 5---- 5-- 5--------------|------ 9------------ 9-------- 9|
A|--------------------------------|--------------------------------|
E|--------------------------------| 0--------------------10--------|

E|---------------- 7------------ 7|------------ 7-------- 7------ 7|
B|---- 8---- 8---- 8-- 8-- 6 7 8 8|------ 8---- 8------ 8-- 8 8-- 8|
G|---- 7---- 7---- 7-- 7----------| 9---- 9---- 9------ 9-- 6 6-- 6|
D|---------- 9-------- 9----------|------ 9------------ 9----------|
A|--------------------------------|------------------------ 0------|
E|--------------------------------| 9------------------------------|

E|----------------------12--------|-- 0-- 0------ 2----------------|
B|---- 8-- 8 8-- 8------10--------|-- 0-- 5---- 5 3---- 3 2--------|
G|---- 6---- 6-- 6---- 8 9--------|-- 1---- 4-- 4-- 2-- 2 2--------|
D|--------------------------------|------------ 6------ 4 2--------|
A|--------------------------------|---------------- 5-- 5-- 0-- 0--|
E|--------------------------------| 0-- 0-- 4 5 7------------------|

E|-------------------- 0----------|-- 0-- 0------ 2------ 7--------|
B|---- 0 5---- 5-- 3-- 3-- 2------|-- 0-- 5---- 5 3---- 3 5--------|
G|---- 1 4---- 4-- 2-- 2-- 2------|-- 1---- 4-- 4-- 2-- 2 6--------|
D|-------- 4-- 6-- 4------ 2------|------------ 6------ 4----------|
A|---------------- 5-- 5-- 0-- 2--|---------------- 5-- 5----------|
E| 0-- 0-- 4 5 7------------------| 0-- 0-- 4 5 7---------- 5-- 5--|

E| 7 7---------------- 2 0-- 0 0--|-- 3----------------------------|
B|------------ 5-- 3-- 3 2-- 2 2--|-- 0------ 8-- 8---- 5---- 3----|
G|-- 4-------- 4-- 2-- 2-- 2 2----|-- 1------ 9-- 7---- 7---- 2----|
D|---- 6------ 6-- 4--------------|---------- 9-- 7---- 7---- 2----|
A|---------------- 5-- 5-- 0 2----|-------------- 5-- 5-- 0-- 0----|
E| 0-- 0-- 4-- 7---------------- 0|------ 4 5 7------------------ 0|

E|-- 3-------------------------- 0|-- 0-- 0-------------- 7--------|
B|-- 0------ 8-- 8---- 5---- 3-- 3| 3 0-- 0------ 3------ 5--------|
G|-- 1------ 9-- 7---- 7---- 2-- 1|---- 1---------- 2---- 6--------|
D|---------- 9-- 7---- 7---- 2----|---------------- 4--------------|
A|-------------- 5-- 5-- 0-- 0----|---------------- 5--------------|
E|------ 4 5 7------------------ 0|---- 0-- 4 5 7---------- 5-- 5--|

E| 7 7---------------- 2 0-- 0 0 0|-- 0-- 0-------------- 7--------|
B|------------ 5-- 3-- 3 2-- 2 2 3| 3 0-- 0------ 3------ 5--------|
G|---- 4------ 4-- 2-- 2-- 2 2-- 1|---- 1---------- 2---- 6--------|
D|---- 6------ 6-- 4--------------|---------------- 4--------------|
A|---------------- 5-- 5-- 0 2----|---------------- 5--------------|
E| 0-- 0-- 4-- 7---------------- 0|---- 0-- 4 5 7---------- 5-- 5--|

E| 7 7---------------- 2 0-- 0 0 0|-- 0-- 0-------------- 7--------|
B|------------ 5-- 3-- 3 2-- 2 2 3| 3 0-- 0------ 3------ 5--------|
G|---- 4------ 4-- 2-- 2-- 2 2-- 1|---- 1---------- 2---- 6--------|
D|---- 6------ 6-- 4--------------|---------------- 4--------------|
A|---------------- 5-- 5-- 0 2----|---------------- 5--------------|
E| 0-- 0-- 4-- 7---------------- 0|---- 0-- 4 5 7---------- 5-- 5--|

E| 7 7---------------- 2 0-- 0 0--|--------------------------------|
B|------------ 5-- 3-- 3 2-- 2 2--|---- 0-------- 3------ 2--------|
G|---- 4------ 4-- 2-- 2-- 2 2----|---- 1---------- 2------ 2------|
D|---- 6------ 6-- 4--------------|---------------- 4------ 2------|
A|---------------- 5-- 5-- 0 2----|---------- 0 2-- 5------ 0-- 0--|
E| 0-- 0-- 4-- 7------------------| 0-- 0-- 4----------------------|

E|--------------------------------|--------------------------------|
B|---- 0-------- 3------ 2--------| 5------------------------------|
G|---- 1---------- 2------ 2------| 4------------------------------|
D|---------------- 4------ 2------| 2------------------------------|
A|---------- 0 2-- 5------ 0-- 2--|--------------------------------|
E| 0-- 0-- 4----------------------| 0------------------------------|



            
            
Suggest correction
Creating personal tab
Creating personal tab
You can edit any tab online and save it as your Personal.

You can edit, replace or remove any tab part or add personal notes – all changes will be seen only by you.

Personal tabs can be accessed anytime from any device, even offline.
Learn more »
Give kudos to tab author, rate the tab!
1 2 3 4 5
comments
print report bad tab
guest
You may want to rate the tab now too:
select rating
Wanna post a correction for this tab? Suggest correction