Oops, an error
Loading. Please wait.

The Lucky Ones tab

85 views 3 this week
no commentswrite comment
1 2 3 4 5
1 last vote to show rating
add to favorites
×
Save as Personal and add changes to this tab that will be seen only by you. Learn more ›
×
You can save this tab as Personal to edit and correct it or add notes. All changes will be seen only by you. Learn more »
launch autoscroll
font size
0
reset
how to read this tab
guitar tuner
edit
Autoscroll
slow
fast
+/-
esc
set tempo
stop
About this tab version
Full Guitar Tab With Lyrics. Was this info helpful? Yes No
[Intro]

   play all 2x
e|------------------------------------------|----------------------------------------|
B|---------8--------------------8--------8--|------------------8---------------------|
G|------5----------5---------5--------5-----|------5--------5------------5-----------|
D|-7----------7---------7----------5--------|-----------5h7----------------------5-7-|
A|------------------------------------------|----------------------------------------|
E|------------------------------------------|-8---------------------8---------8------|

e|---------------------------------------------|-------------------------------------------|
B|---------------------------------------------|-----------------8--------------------8----|
G|---------5----------5----------5----------5--|------5-------5------------5-------5-------|
D|------5----------5----------5----------5-----|-----------5--------------------5----------|
A|-8----------7----------5---------------------|-0--------------------0--------------------|
E|----------------------------------8----------|-------------------------------------------|

 

[Verse]

e|------------------------------------------|----------------------------------------|
B|---------8--------------------8--------8--|------------------8---------------------|
G|------5----------5---------5--------5-----|------5--------5------------5-----------|
D|-7----------7---------7----------5--------|-----------5h7----------------------5-7-|
A|------------------------------------------|----------------------------------------|
E|------------------------------------------|-8---------------------8---------8------|
  "Life                             is a mystery.                                We"

e|---------------------------------------------|-------------------------------------------|
B|---------------------------------------------|-----------------8--------------------8----|
G|---------5----------5----------5----------5--|------5-------5------------5-------5-------|
D|------5----------5----------5----------5-----|-----------5--------------------5----------|
A|-8----------7----------5---------------------|-0--------------------0--------------------|
E|----------------------------------8----------|-------------------------------------------|
  "walk around this world like we're asleep."

e|------------------------------------------|----------------------------------------|
B|---------8--------------------8--------8--|------------------8---------------------|
G|------5----------5---------5--------5-----|------5--------5------------5-----------|
D|-7----------7---------7----------5--------|-----------5h7----------------------5-7-|
A|------------------------------------------|----------------------------------------|
E|------------------------------------------|-8---------------------8---------8------|
  "Love                       don't mean a thing."

e|---------------------------------------------|------------------------------------------|
B|-------------------------------8----------8--|------8-----------8-----------------------|
G|---------5----------5-------5----------5-----|---------------5--------------------------|
D|------5----------5-----5---------------------|-----------5h7----------------------------|
A|-8----------7--------------------------------|------------------------------------------|
E|----------------------------------7----------|-8---------------------8--------7---------|
  "Without you  in my    arms I     drift away."



[Chorus]

   play 4x
e|---------------15--------------15----|---------------15--------------15----|
B|-13--12----13--------13--12h13-------|-13--12----13--------13--12h13-------|
G|-------------------------------------|-------------------------------------|
D|-------------------------------------|-------------------------------------|
A|-------------------------------------|-------------------------------------|
E|-------------------------------------|-------------------------------------|
   "Oooh                 We're the lucky ones."



[Verse 2]

e|------------------------------------------|----------------------------------------|
B|---------8--------------------8--------8--|------------------8---------------------|
G|------5----------5---------5--------5-----|------5--------5------------5-----------|
D|-7----------7---------7----------5--------|-----------5h7----------------------5-7-|
A|------------------------------------------|----------------------------------------|
E|------------------------------------------|-8---------------------8---------8------|
  "Time                             slips away.                                 Grow"

e|---------------------------------------------|-------------------------------------------|
B|---------------------------------------------|-----------------8--------------------8----|
G|---------5----------5----------5----------5--|------5-------5------------5-------5-------|
D|------5----------5----------5----------5-----|-----------5--------------------5----------|
A|-8----------7----------5---------------------|-0--------------------0--------------------|
E|----------------------------------8----------|-------------------------------------------|
  "old and   watch the    leaves turn       to gray"

e|------------------------------------------|----------------------------------------|
B|---------8--------------------8--------8--|------------------8---------------------|
G|------5----------5---------5--------5-----|------5--------5------------5-----------|
D|-7----------7---------7----------5--------|-----------5h7----------------------5-7-|
A|------------------------------------------|----------------------------------------|
E|------------------------------------------|-8---------------------8---------8------|
  "Love                              means everything"

e|---------------------------------------------|------------------------------------------|
B|-------------------------------8----------8--|------8-----------8-----------------------|
G|---------5----------5-------5----------5-----|---------------5--------------------------|
D|------5----------5-----5---------------------|-----------5h7----------------------------|
A|-8----------7--------------------------------|------------------------------------------|
E|----------------------------------7----------|-8---------------------8--------7---------|
  "Without you   in my      life I      drift away."



[Chorus 2]
   play 4x
e|---------------15--------------15----|---------------15--------------15----|
B|-13--12----13--------13--12h13-------|-13--12----13--------13--12h13-------|
G|-------------------------------------|-------------------------------------|
D|-------------------------------------|-------------------------------------|
A|-------------------------------------|-------------------------------------|
E|-------------------------------------|-------------------------------------|
   "Oooh                 We're the lucky ones."


[Solo]
    with pickup notes from end of Chorus
e|-----|---------------------------|----------------------------|--------8--8-/10----10-10-|
B|-----|---------------------8--8--|-8/10~----------------------|--------8--8-/10----10-10-|
G|-7-7-|-7/9~----------------------|-------------9p7-9~---------|-(9~)---------------------|
D|-----|---------------------------|----------------------------|--------------------------|
A|-----|---------------------------|----------------------------|--------------------------|
E|-----|---------------------------|----------------------------|--------------------------|

e|-10\8--------10-10\5---------5-|-5~--------5-5---/8~---8-8-|-8/10----10/12----12/15--15~~~|
B|-10\8----------------------5---|---------------5-/8~---8-8-|-8/10----10/12----12/15-------|
G|-------------------------------|---------------------------|------------------------------|
D|-------------------------------|---------------------------|------------------------------|
A|-------------------------------|---------------------------|------------------------------|
E|-------------------------------|---------------------------|------------------------------|

e|-15~~---15---------10---10---|-10--8~~~~~~~~~~~~~~~~~~-----|
B|-----------10------10---10---|-10--------------------------|
G|-----------------------------|-----------------------------|
D|-----------------------------|-----------------------------|
A|-----------------------------|-----------------------------|
E|-----------------------------|-----------------------------|


[Outro Chorus]
   play 3x
e|---------------15--------------15----|---------------15--------------15----|
B|-13--12----13--------13--12h13-------|-13--12----13--------13--12h13-------|
G|-------------------------------------|-------------------------------------|
D|-------------------------------------|-------------------------------------|
A|-------------------------------------|-------------------------------------|
E|-------------------------------------|-------------------------------------|
   "Oooh                 We're the lucky ones."

e|---------------15--------------15----|---------------15--------------------|
B|-13--12----13--------13--12h13-------|-13--12----13--------13--12---15-13--|
G|-------------------------------------|-------------------------------------|
D|-------------------------------------|-------------------------------------|
A|-------------------------------------|-------------------------------------|
E|-------------------------------------|-------------------------------------|
   "Oooh                 We're the lucky ones."




************************************
KEY:

| h   Hammer-on
| p   Pull-off
| /   Slide up
| \   Slide down
| ~   Vibrato

************************************

            
            
Suggest correction
Creating personal tab
Creating personal tab
You can edit any tab online and save it as your Personal.

You can edit, replace or remove any tab part or add personal notes – all changes will be seen only by you.

Personal tabs can be accessed anytime from any device, even offline.
Learn more »
Give kudos to tab author, rate the tab!
1 2 3 4 5
comments
print report bad tab
guest
You may want to rate the tab now too:
select rating
Wanna post a correction for this tab? Suggest correction