Oops, an error
Loading. Please wait.

Corre Por Tu Suerte tab

37 views 3 this week
no commentswrite comment
1 2 3 4 5
3 more votes to show rating
add to favorites
×
Save as Personal and add changes to this tab that will be seen only by you. Learn more ›
×
You can save this tab as Personal to edit and correct it or add notes. All changes will be seen only by you. Learn more »
launch autoscroll
font size
0
reset
how to read this tab
guitar tuner
edit
Autoscroll
slow
fast
+/-
esc
set tempo
stop
Intro
e|---------------------------------------------------------|
B|---------------------------------------------------------|
G|--9----5--5-5-----9----5---5-5------7---9----------------|
D|--9----5--5-5-----9----5---5-5------7---9----------------|
A|--7----3--3-3-----7----3---3-3------5---7----------------|
E|---------------------------------------------------------|

RIFF 1
e|--------------------------------------------------------------------|
B|--------------------------------------------------------------------|
G|--------------------------------------------------------------------|
D|--------------------------------------------------------------------|
A|----5-----8--7-7-8-----5-----5--8-7-5-----5-----8--7-7-8----5-----5-|
E|--0-3-0-0-6--5-5-6---0-3-0-0-3--6-5-3---0-3-0-0-6--5-5-6--0-3-0-0-3-|

RIFF 2
e|---------------------------|
B|---------------------------|
G|---------------------------|
D|---------------------------|
A|--0-2-0---------2---3---2--|
E|--------3-00000---0---0----|
            XXXXX   X   X
RIFF 3
e|---------------------------|
B|---------------------------|
G|---------------------------|
D|--5-4--2-4---5-4-2-4-------|
A|---------------------------|
E|---------------------------|

INTRO
RIFF 1

RIFF 2
Me sorprende el sol, vuelvo del ayer;
RIFF 3
buscando en el pasado algo que hoy me haga bien.
RIFF 2
Siento su calor insolándome
RIFF 3
pero sé que otros tiempos se ocultan bajo mi piel.

RE                       DO
Si de algo sirvió lo que hiciste ayer, no lo sé...
RE                         DO
El tiempo pasó y hoy debes correr por tu suerte.

RIFF 2
Lo hecho, hecho está y lo que ha sido fue;
RIFF 3
empujando las riendas recobrás fuerzas otra vez.
RIFF 2
Vacío en tu interior, desnudo y sin disfraz;
RIFF 3
resistiendo al mal tiempo algo bueno llegará.

RE                          DO
No pidas perdón, yo sé lo que es...volver.
RE                            DO
Si es tu decisión empieza a correr por tu suerte.

RIFF 1
La fortuna ajena no te importará
si en tu mente eres fiel a tu ideal.

SOLO DE GUITARRA

RIFF1
La fortuna ajena no te importará
si en tu mente eres fiel a tu ideal.

RIFF
Veo al mismo sol iluminándome,
RIFF
testigo del camino tras las huellas que dejé.
RIFF
Sólo él me encontró viendo quién es quién;
RIFF
descifrando mentiras pude mantenerme en pié.

RE                                 DO
Si de algo sirvió lo que hiciste ayer, no lo sé...
RE                            DO
El tiempo pasó y hoy debes correr por tu suerte.

RIFF 1
La fortuna ajena no te importará
Si en tu mente eres fiel a tu ideal.

-----------------------------------------------------------
SUPONGO QUE ESTARA TODO BIEN
AGUANTE EL HEAVY METAL NACIONAL
MAS VIVO QUE NUNCA

            
            
Suggest correction
Creating personal tab
Creating personal tab
You can edit any tab online and save it as your Personal.

You can edit, replace or remove any tab part or add personal notes – all changes will be seen only by you.

Personal tabs can be accessed anytime from any device, even offline.
Learn more »
Give kudos to tab author, rate the tab!
1 2 3 4 5
comments
print report bad tab
guest
Wanna post a correction for this tab? Suggest correction