Oops, an error
Loading. Please wait.

Endeudando Nuestro Sol tab

22 views 1 this week
no commentswrite comment
1 2 3 4 5
3 more votes to show rating
add to favorites
×
Save as Personal and add changes to this tab that will be seen only by you. Learn more ›
×
You can save this tab as Personal to edit and correct it or add notes. All changes will be seen only by you. Learn more »
launch autoscroll
font size
0
reset
how to read this tab
guitar tuner
edit
Autoscroll
slow
fast
+/-
esc
set tempo
stop
e|-----------------------------------------------------------------|
B|-----------------------------------------------------------------|
G|-----------------------------------------------------------------|
D|-------------9-------10-------------9-------7-------------9------|
A|-------------7--------8-------------7-------5-------------7------|
E|-0-0-0-0-0-0---0-0-0----0-0-0-0-0-0---0-0-0---0-0-0-0-0-0---0-0-0|


e|-----------------------------------------------------------------|
B|-----------------------------------------------------------------|
G|-----------------------------------------------------------------|
D|-7-------------9-12-7-------------9-------10-------------9------7|
A|-5-------------7-10-5-------------7--------8-------------7------5|
E|---0-0-0-0-0-0--------0-0-0-0-0-0---0-0-0----0-0-0-0-0-0---0-0-0-|


e|-----------------------------------------------------------------|
B|-----------------------------------------------------------------|
G|-----------------------------------------------------------------|
D|-------------9-------10------------------------------------------|
A|-------------7--------8------------------------------------------|
E|-0-0-0-0-0-0---0-0-0----10/0-------------------------------------|


e|-----------------------------------------------------------------|
B|-----------------------------------------------------------------|
G|-----------------------------------------------------------------|
D|-------------9-------10-------------9-------7-------------9------|
A|-------------7--------8-------------7-------5-------------7------|
E|-0-0-0-0-0-0---0-0-0----0-0-0-0-0-0---0-0-0---0-0-0-0-0-0---0-0-0|
               Ocu----ltas         la inva--sion            con el


e|-----------------------------------------------------------------|
B|-----------------------------------------------------------------|
G|-----------------------------------------------------------------|
D|10-------------9-12-7-------------9-------10-------------9-------|
A|-8-------------7-10-5-------------7--------8-------------7-------|
E|---0-0-0-0-0-0--------0-0-0-0-0-0---0-0-0----0-0-0-0-0-0---0-0-0-|
   verde        dolar de hoy       con el  cual            a este


e|-----------------------------------------------------------------|
B|-----------------------------------------------------------------|
G|-----------------------------------------------------------------|
D|-7-------------9-------10-9--------------------------------------|
A|-5-------------7--------8-7--------------------------------------|
E|---0-0-0-0-0-0---0-0-0------10/0---------------------------------|
  sur            compra--ras


e|-----------------------------------------------------------------|
B|-----------------------------------------------------------------|
G|-----------------------------------------------------------------|
D|-------------9-------10-------------9-------7-------------9------|
A|-------------7--------8-------------7-------5-------------7------|
E|-0-0-0-0-0-0---0-0-0----0-0-0-0-0-0---0-0-0---0-0-0-0-0-0---0-0-0|
               esa      es           tu   mision            ver mi


e|-----------------------------------------------------------------|
B|-----------------------------------------------------------------|
G|-----------------------------------------------------------------|
D|-10-9-----------------9-------10-------------9--------7----------|
A|--8-7-----------------7--------8-------------7--------5----------|
E|------10/0-0-0-0-0-0-0---0-0-0----0-0-0-0-0-0---0-0-0--0-0-0-0-0-|
  gente en desunion     aumen---tas            tu    poder


e|-----------------------------------------------------------------|
B|-----------------------------------------------------------------|
G|-----------------------------------------------------------------|
D|-9-------10-------------9-12-7-----------------------------------|
A|-7--------8-------------7-10-5-----------------------------------|
E|---0-0-0----0-0-0-0-0-0------------------------------------------|
   con    ajeno        empobrecer


e|-----------------------------------------------------------------|
B|-----------------------------------------------------------------|
G|-----------------------------------------------------------------|
D|-5-----5-----5---6-----6-----6---7-----7-----7---8-----8-----8---|
A|-3-3-3-3-3-3-3-3-4-4-4-4-4-4-4-4-5-5-5-5-5-5-5-5-6-6-6-6-6-6-6-6-|
E|-----------------------------------------------------------------|
             Endeudando nuestro    sol        pagamos tu usurpacion


e|-----------------------------------------------------------------|
B|-----------------------------------------------------------------|
G|-----------------------------------------------------------------|
D|-5-----5-----5-----5-----5---5---9-----9-----9-----9-----9---9---|
A|-5-----5-----5-----5-----5---5---7-7-7-7-7-7-7-7-7-7-7-7-7-7-7-7-|
E|---3-3---3-3---3-3---3-3---3---3---------------------------------|
                                   y opresion


e|-----------------------------------------------------------------|
B|-----------------------------------------------------------------|
G|-----------------------------------------------------------------|
D|-5-----5-----5---6-----6-----6---7-----7-----7---8-----8-----8---|
A|-3-3-3-3-3-3-3-3-4-4-4-4-4-4-4-4-5-5-5-5-5-5-5-5-6-6-6-6-6-6-6-6-|
E|-----------------------------------------------------------------|
         y al traidor que     cobijas a tu       antojo disfrazas


e|-----------------------------------------------------------------|
B|-----------------------------------------------------------------|
G|-----------------------------------------------------------------|
D|-7/9-12-11-9-12-11-12-11-7---------------------------------------|
A|-5/7-10--9-7-10--9-10--9-5---------------------------------------|
E|-----------------------------------------------------------------|


e|-----------------------------------------------------------------|
B|-----------------------------------------------------------------|
G|-----------------------------------------------------------------|
D|-5-9-12-11-7-7/9-12-11-9-12-11-12-11-7---------------------------|
A|-3-7-10--9-5-5/7-10--9-7-10--9-10--9-5---------------------------|
E|-----------------------------------------------------------------|
   Condenados


e|-----------------------------------------------------------------|
B|-----------------------------------------------------------------|
G|-----------------------------------------------------------------|
D|-5-9-12-11-7-7/9-12-11-9-12-11-12-11-7---------------------------|
A|-3-7-10--9-5-5/7-10--9-7-10--9-10--9-5---------------------------|
E|-----------------------------------------------------------------|
   A esta esclavitud


e|-----------------------------------------------------------------|
B|-----------------------------------------------------------------|
G|-----------------------------------------------------------------|
D|-5-9-12-11-7-7/9-12-11-9-12-11-12-11-7---------------------------|
A|-3-7-10--9-5-5/7-10--9-7-10--9-10--9-5---------------------------|
E|-----------------------------------------------------------------|
   Despojados


e|-----------------------------------------------------------------|
B|-----------------------------------------------------------------|
G|-----------------------------------------------------------------|
D|-5-9-12-11-7-----------------------------------------------------|
A|-3-7-10--9-5-----------------------------------------------------|
E|-----------------------------------------------------------------|
   de nuestra virtud


e|-----------------------------------------------------------------|
B|-----------------------------------------------------------------|
G|-----------------------------------------------------------------|
D|-------5-7-5-3h5h3----------5-7-5-------------7-9-7--------------|
A|-3-5-8-------------7--4-5-8-------8-7--5-7-10-------10-9---------|
E|-----------------------------------------------------------------|
           Realidad             y ficcion         nos sacuden


e|-----------------------------------------------------------------|
B|-----------------------------------------------------------------|
G|---------------------------------9---9-7-------------------------|
D|--------7-9-7--------9---9---9-6---6-----9-----------------------|
A|-6-7-10-------10-9-7---7---7-------------------------------------|
E|-----------------------------------------------------------------|
            como un dios


e|----------------------------------------------------7------------|
B|------------8-7h8h7---10-8-7h8h7---8-7---7---7-8-10---10-8-7-----|
G|--------------------9------------9-----9---7---------------------|
D|-------5-7-------------------------------------------------------|
A|-3-5-8-----------------------------------------------------------|
E|-----------------------------------------------------------------|
           Al    que   vos   lo    veneras            y por


e|-11-7------------------------------------------------------------|
B|------10-8-------------------------------------------------------|
G|-----------9-----------------------------------------------------|
D|-------------9---------------------------------------------------|
A|---------------10-9-7--------------------------------------------|
E|----------------------0-0-0-0--0-0-0-0--0-0-0-0--0-0-0-----------|
   siglos   mas   reira


e|-----------------------------------------------------------------|
B|-----------------------------------------------------------------|
G|-----------------------------------------------------------------|
D|-5-----5-----5---6-----6-----6---7-----7-----7---8-----8-----8---|
A|-3-3-3-3-3-3-3-3-4-4-4-4-4-4-4-4-5-5-5-5-5-5-5-5-6-6-6-6-6-6-6-6-|
E|-----------------------------------------------------------------|


e|-----------------------------------------------------------------|
B|-----------------------------------------------------------------|
G|-----------------------------------------------------------------|
D|-9---------------------------------------------------------------|
A|-7---------------------------------------------------------------|
E|---0-0-0-0-0-0-0-0-----------------------------------------------|


(SOLO DEL TANO)

e|-----------------------------------------------------------------|
B|-17b19-17b19v-17-14v-17-14-14----17------------------------------|
G|---------------------------16b18----16-14-------16-14----14------|
D|------------------------------------------16-16-------16-16------|
A|-----------------------------------------------------------------|
E|-----------------------------------------------------------------|


e|-----------------------------------------------------------------|
B|-----------------------------------------------------------------|
G|-16b18r16h14h16v--14h16h14h16-13h15h13h15-11h13h11h13-9h11h9h11--|
D|-----------------------------------------------------------------|
A|-----------------------------------------------------------------|
E|-----------------------------------------------------------------|


e|-----------------------------------------------------------------|
B|-10-----------17-17----17----17------------10h9----10-10h9-------|
G|----11--16b18----16b18-16b18-16b18-16-14v-------11---------11----|
D|-----------------------------------------------------------------|
A|-----------------------------------------------------------------|
E|-----------------------------------------------------------------|


e|-----------------------------------------------------------------|
B|--------------------------------------------9-10-9h10h9----9-10--|
G|-11-9------------------------------------11-------------11-------|
D|------12-11-9---------------------/9-/11-------------------------|
A|--------------12-11-9--/9-/11-/12--------------------------------|
E|-----------------------------------------------------------------|


e|-----------------------------------------------------------------|
B|-12b14r12-10-9-10-10h9----10-------------------------------------|
G|-----------------------11----9v-9v--14b16-14-12-14-12-11h12h11---|
D|-----------------------------------------------------------------|
A|-----------------------------------------------------------------|
E|-----------------------------------------------------------------|


e|-----------------------------------------------------------------|
B|----------------15-15--------------------------------------------|
G|-9----9v--14b16----14b16r14-12-11v-------------------------------|
D|---12------------------------------------------------------------|
A|------------------------------------12-10-9-10-9-----------------|
E|-------------------------------------------------12-10-----------|

Orfandad del ayer
adopcion injusta fue
en manos de un ladron
nuestra america cayo

Inpuniando su fe
su cultura y costumbres
nos quebro nos vacio
su surera explotacion

Endeudando nuuestro sol
pagamos tu usurpacion y opresion
y al traidor que cobijas
a tu antojo disfrazas

Condenado a esta esclavitud
despojados de nuestra virtud

Realidad y ficcion
nos sacuden como a un dios

Ocultas la invasion
con el verde dolar de hoy

            
            
Suggest correction
Creating personal tab
Creating personal tab
You can edit any tab online and save it as your Personal.

You can edit, replace or remove any tab part or add personal notes – all changes will be seen only by you.

Personal tabs can be accessed anytime from any device, even offline.
Learn more »
Give kudos to tab author, rate the tab!
1 2 3 4 5
comments
print report bad tab
guest
Wanna post a correction for this tab? Suggest correction