Oops, an error
Loading. Please wait.

Incomprensible tab

16 views 1 this week
no commentswrite comment
1 2 3 4 5
3 more votes to show rating
add to favorites
×
Save as Personal and add changes to this tab that will be seen only by you. Learn more ›
×
You can save this tab as Personal to edit and correct it or add notes. All changes will be seen only by you. Learn more »
launch autoscroll
font size
0
reset
how to read this tab
guitar tuner
edit
Autoscroll
slow
fast
+/-
esc
set tempo
stop
e|-----------------------------------------------------------------|
B|-----------------------------------------------------------------|
G|-/9----------7---------------------------------------------------|
D|----10-7-------9-/7---10---------10-9----------------------------|
A|---------/10--------8----/7-8-10------10-------------------------|
E|-----------------------------------------------------------------|


e|-----------------------------------------------------------------|
B|-----------------------------------------------------------------|
G|-/9----------7---------------------------------------------------|
D|----10-7-------9-/7---10---------10-9----------------------------|
A|---------/10--------8----/7-8-10------10-------------------------|
E|-----------------------------------------------------------------|


e|-----------------------------------------------------------------|
B|-----------------------------------------------------------------|
G|-----------------------------------------------------------------|
D|-----------------------------------------------------------------|
A|-7-7---10-10---5-5---8-8---7-7---10-10---5-5---8-8---------------|
E|-5-5-0--8--8-0-3-3-0-6-6-0-5-5-0--8--8-0-3-3-0-6-6-0-------------|


e|-----------------------------------------------------------------|
B|-----------------------------------------------------------------|
G|-----------------------------------------------------------------|
D|-----------------------------------------------------------------|
A|-7-7---10-10---5-5---8-8---7-7---10-10---5-5---8-8---------------|
E|-5-5-0--8--8-0-3-3-0-6-6-0-5-5-0--8--8-0-3-3-0-6-6-0-------------|


e|-----------------------------------------------------------------|
B|-----------------------------------------------------------------|
G|-9---7---9---7---9-10--9---7---9---7---10-7----------------------|
D|-7---5---7---5---7--8--7---5---7---5----8-5----------------------|
A|---0---0---0---0---------0---0---0---0---------------------------|
E|-----------------------------------------------------------------|
   Intentando regresar a su infancia


e|-----------------------------------------------------------------|
B|-----------------------------------------------------------------|
G|-9---7---9---7---9-10--4---5---7---4---5-7-----------------------|
D|-7---5---7---5---7--8--2---3---5---2---3-5-----------------------|
A|---0---0---0---0---------0---0---0---0---------------------------|
E|-----------------------------------------------------------------|
   lamentando la vida que llevo


e|-----------------------------------------------------------------|
B|-----------------------------------------------------------------|
G|-9---7---9---7---9-10--9---7---9---7---10-7----------------------|
D|-7---5---7---5---7--8--7---5---7---5----8-5----------------------|
A|---0---0---0---0---------0---0---0---0---------------------------|
E|-----------------------------------------------------------------|
   El destino lo impulso a la venganza


e|-----------------------------------------------------------------|
B|-----------------------------------------------------------------|
G|-9---7---9---7---9-10--4---5---7---4---5-7-----------------------|
D|-7---5---7---5---7--8--2---3---5---2---3-5-----------------------|
A|---0---0---0---0---------0---0---0---0---------------------------|
E|-----------------------------------------------------------------|
    y en manos del estado quedo


e|-----------------------------------------------------------------|
B|-----------------------------------------------------------------|
G|-----------------------------------------------------------------|
D|-----------------------------------------------------------------|
A|-7-7---10-10---5-5---8-8---7-7--------10-10---5-5---8-8---7-7----|
E|-5-5-0--8--8-0-3-3-0-6-6-0-5-5-0-------8--8-0-3-3-0-6-6-0-5-5-0--|
   Del    Aban--dono  A LA prision Incompren----sible solucion


e|-----------------------------------------------------------------|
B|-----------------------------------------------------------------|
G|-----------------------------------------------------------------|
D|-----------------------------------------------------------------|
A|-10-10---5-5-----8-8---7-7---10-10---5-5---8-8-------------------|
E|--8--8-0-3-3-0---6-6-0-5-5-0--8--8-0-3-3-0-6-6-0-----------------|
  Podran privar su libertad pero sus sueños libres estan


Tan injusta es la vida que lleva
y entre rejas mastico su dolor
la justicia le dicto su sentencia
como a todo pobre nunca escucho

Del abandono a la prision
incomprensible solucion
podran privar su libertad
pero sus sueños libres estan

e|-----------------------------------------------------------------|
B|-----------------------------------------------------------------|
G|-/9----------7---------------------------------------------------|
D|----10-7-------9-/7---10---------10-9----------------------------|
A|---------/10--------8----/7-8-10------10-------------------------|
E|-----------------------------------------------------------------|
                                   Libres estaaaaaaaaaan


e|-----------------------------------------------------------------|
B|-----------------------------------------------------------------|
G|----9------10-9----/12-------------------------------------------|
D|-/7---7-/9------10-----10-12-15b17v------------------------------|
A|-----------------------------------------------------------------|
E|-----------------------------------------------------------------|


(SOLO DEL TANO)

e|-----------------------------------------------------------------|
B|-----------------------------------------------------------------|
G|----------------------5---5---7b9r7-7-9--------------------------|
D|----------------5-7-8---7---7------------------------------------|
A|----------5-7-8--------------------------------------------------|
E|-5v-5-6-8--------------------------------------------------------|


e|-----------------------------------------------------------------|
B|-8b10r8-8b10v-8-6-5---5------------------------------------------|
G|--------------------7---7b9r7-7b9r7-7b9r7-7b9r7-7b9r7-5----------|
D|--------------------------------------------------------7--------|
A|-----------------------------------------------------------------|
E|-----------------------------------------------------------------|


e|-----------------------------------------------------------------|
B|-15b17r15-15b17v-13-13-13----13-13-------------------------------|
G|--------------------------15----15b17-14h12----------------------|
D|--------------------------------------------14v------------------|
A|-----------------------------------------------------------------|
E|-----------------------------------------------------------------|


e|-----------------------------------------------------------------|
B|-----------------------------------------------------------------|
G|-14h12----14b12----14b12----14-15-17-14-15-17-15v-15v------------|
D|-------14-------14-------14--------------------------------------|
A|-----------------------------------------------------------------|
E|-----------------------------------------------------------------|


e|-----------------------------------------------------------------|
B|-----------------------------------------------------------------|
G|-17h15h14/12-14v-15b17v------------------------------------------|
D|-----------------------------------------------------------------|
A|-----------------------------------------------------------------|
E|-----------------------------------------------------------------|


Liberado al cumplir su condena
el anhelo en realidad convirtio
el pasado le marco su templanza
y el presente le devuelve su honor


Del abandono a la prision
incomprensible solucion
podran privar su libertad
pero sus sueños libres estan


e|-----------------------------------------------------------------|
B|-----------------------------------------------------------------|
G|-9---7---9---7---9-10--9---7---9---7---10-7----------------------|
D|-7---5---7---5---7--8--7---5---7---5----8-5----------------------|
A|---0---0---0---0---------0---0---0---0---------------------------|
E|-----------------------------------------------------------------|


e|-----------------------------------------------------------------|
B|-----------------------------------------------------------------|
G|-9---7---9---7---9-10--------------------------------------------|
D|-7---5---7---5---7--8--------------------------------------------|
A|---0---0---0---0-------------------------------------------------|
E|-----------------------0-0-0-0-1-1-1-1-3-3-3-3-0-0-0-0-1-1-1-1---|


e|-----------------------------------------------------------------|
B|-----------------------------------------------------------------|
G|-----------------------------------------------------------------|
D|-----------------------------------------------------------------|
A|---------7/2-----------------------------------------------------|
E|-3-3-3-3-5/0-----------------------------------------------------|

            
            
Suggest correction
Creating personal tab
Creating personal tab
You can edit any tab online and save it as your Personal.

You can edit, replace or remove any tab part or add personal notes – all changes will be seen only by you.

Personal tabs can be accessed anytime from any device, even offline.
Learn more »
Give kudos to tab author, rate the tab!
1 2 3 4 5
comments
print report bad tab
guest
Wanna post a correction for this tab? Suggest correction