Oops, an error
Loading. Please wait.

Luna chords

20 views 1 this week
no commentswrite comment
1 2 3 4 5
3 more votes to show rating
add to favorites
×
Save as Personal and add changes to this tab that will be seen only by you. Learn more ›
×
You can save this tab as Personal to edit and correct it or add notes. All changes will be seen only by you. Learn more »
launch autoscroll
font size
0
reset
transpose
0
reset
display chords
guitar tuner
edit
Autoscroll
slow
fast
+/-
esc
set tempo
stop
Strumming
There is no strumming pattern for this song yet. and get +5 IQ
DE NUEVO ILIAN DE Villa Hermosa..
1er solo:
 
e ------------11-12-11---------11-------14/16----------
b -----12---12--------12-12/14----14-12-------14/16----
g -/11---11--------------------------------------------
D -----------------------------------------------------
A -----------------------------------------------------
E -----------------------------------------------------
 
D -------------------------------------------
A -------------------------------------------
E -11-13-11-8/9-8-9-8-6----------------------
D ----------------------9--------------------
A -------------------------------------------
E -------------------------------------------
 
B               E  B
Haz visto vez alguna
                E   B
Como brilla la luna,
                     E
En la soledad de la noche
C#m                        B
Pero sin embargo yo percibo paz
            E  B E
Yo percibo paz 
C#m 
Loco y amante,
No se,
E                B
Enamorado talvez,
De tu resplandor
        E
Y tu belleza
C#m
Pues en esta soledad
E
Te reprocho mis errores
       B
Una vez mas
       E
Una vez mas
       B   
En el ocaso
           E      B E
De esta tarde gris 
 
C#m         E
Oh! Luna buena,
                         B
Dime porque no puedo amarla
             E
Y solamente soñarla 
                 B
porque no puedo amarla
             E
Y solamente soñarla 
 
C#m                E
Entre deseos frustados
                            C#m
Entre historietas narradas,
                  B      E B
Entre delirio y anciedad 
          E                B  E B
oh dime luna...Ven! Dime porque?
               
Has visto a la luna 
B E...

            
            
Suggest correction
Creating personal tab
Creating personal tab
You can edit any tab online and save it as your Personal.

You can edit, replace or remove any tab part or add personal notes – all changes will be seen only by you.

Personal tabs can be accessed anytime from any device, even offline.
Learn more »
Give kudos to tab author, rate the tab!
1 2 3 4 5
comments
print report bad tab
guest
Wanna post a correction for this tab? Suggest correction