Oops, an error
Loading. Please wait.

I Cant Stop This Feeling Ive Got tab

version 1
version 1

Whole song

Interactive

11,249 views 18 this week
2 commentsread comments
1 2 3 4 5
x 5
add to favorites
×
Save as Personal and add changes to this tab that will be seen only by you. Learn more ›
×
You can save this tab as Personal to edit and correct it or add notes. All changes will be seen only by you. Learn more »
launch autoscroll
font size
0
reset
how to read this tab
guitar tuner
edit
Autoscroll
slow
fast
+/-
esc
set tempo
stop
Author
-------------------------------------------------------------------------------
I CAN’T STOP THIS FEELING NOW - Razorlight
-------------------------------------------------------------------------------
Tabbed by: gorrki1
Email: julianprott@web.de

Tuning: Standard (EADGBe)

0:00 – 0:40
Guitar 1
e|12-12-------------12-12----------------------------------------------------|
B|------10-10-------------10-10----------------------------------------------|
G|------------11-11-------------11-11-------very-fast,-repeat-many-times-----|
D|---------------------------------------------------------------------------|
A|---------------------------------------------------------------------------|
E|---------------------------------------------------------------------------|

0:11 – 0:26
guitar 2 (right panel)
e|---------------------------------------------------------------------------|
B|10---9--9--5--10-7----14\10--12--9--5-10-9-7--10---------------------------|
G|-9---9--9--6-----7----11\-9---9--9--6----7-7---7------------------x2-------|
D|---------------------------------------------------------------------------|
A|---------------------------------------------------------------------------|
E|---------------------------------------------------------------------------|

Guitar 3 (left panel)
e|---------------------------------------------------------------------------|
B|10---9--9--5--7-7--------10---9--9--5-10-7-7--7----------------------------|
G|-9---9--9--6--7-7---------9---9--9--6----7-7--7-------------------x2-------|
D|---------------------------------------------------------------------------|
A|---------------------------------------------------------------------------|
E|---------------------------------------------------------------------------|

0:26 – 0:54
Guitar 2 (left panel)
e|---------------------------------------------------------------------------|
B|-10--9---5--7-------x8-----------------------------------------------------|
G|---------------------------------------------------------------------------|
D|---------------------------------------------------------------------------|
A|---------------------------------------------------------------------------|
E|---------------------------------------------------------------------------|

0:40 – 0:54
Guitar 1
e|---------------------------------------------------------------------------|
B|10-10-10-10-10-10-10-10---very-fast----------------------------------------|
G|---------------------------------------------------------------------------|
D|---------------------------------------------------------------------------|
A|---------------------------------------------------------------------------|
E|---------------------------------------------------------------------------|

0:54 – 1:09
Guitar 1
e|12-12-------------12-12----------------------------------------------------|
B|------10-10-------------10-10----------------------------------------------|
G|------------11-11-------------11-11--------very-fast,-repeat-many-times----|
D|---------------------------------------------------------------------------|
A|---------------------------------------------------------------------------|
E|---------------------------------------------------------------------------|

0:54 – 1:09
Guitar 2 (left panel)
e|---------------------------------------------------------------------------|
B|10---9--9---5--7-----------------------------------------------------------|
G|-9---9--9---6--7-------x4--------------------------------------------------|
D|---------------------------------------------------------------------------|
A|---------------------------------------------------------------------------|
E|---------------------------------------------------------------------------|

1:09 – 1:27
Guitar 1
e|------------------------------------------------14-14-14-14----------------|
B|14-14-14-14-14-14-14-14---repeat,-near-the-end:-14-14-14-14----------------|
G|---------------------------------------------------------------------------|
D|---------------------------------------------------------------------------|
A|---------------------------------------------------------------------------|
E|---------------------------------------------------------------------------|

1:09 – 1:27
Guitar 2 (left panel)
e|---------------------------------------------------------------------------|
B|-10--9---5--7-------x5-----------------------------------------------------|
G|---------------------------------------------------------------------------|
D|---------------------------------------------------------------------------|
A|---------------------------------------------------------------------------|
E|---------------------------------------------------------------------------|

1:27 – 1:47
Guitars 2 & 3
e|---------------------------------------------------------------------------|
B|---------------------------------------------------------------------------|
G|--------4-4-4-4-7-7-7-7-----9-9--------------------------------------------|
D|4-4-4-4-4-4-4-4-7-7-7-7-7-7-9-9---x2---------------------------------------|
A|4-4-4-4-2-2-2-2-5-5-5-5-7-7-7-7--------------------------------------------|
E|2-2-2-2-----------------5-5------------------------------------------------|

e|----------------------------------------7-7-7-7----------------------------|
B|--------------------------------9-9-9-9-9-9-9-9----------------------------|
G|7-7-7-7-7-7-7-7-9-9-9-9-9-9-9-9-9-9-9-9-9-9-9-9----------------------------|
D|7-7-7-7-7-7-7-7-9-9-9-9-9-9-9-9-9-9-9-9-9-9-9-9----------------------------|
A|5-5-5-5-5-5-5-5-7-7-7-7-7-7-7-7-7-7-7-7-7-7-7-7----------------------------|
E|---------------------------------------------------------------------------|

1:47 – 2:01
Guitar 1
e|12-12-------------12-12----------------------------------------------------|
B|------10-10-------------10-10----------------------------------------------|
G|------------11-11-------------11-11--------very-fast,-repeat-many-times----|
D|---------------------------------------------------------------------------|
A|---------------------------------------------------------------------------|
E|---------------------------------------------------------------------------|

1:47 – 2:01
Guitar 2 (left panel)
e|---------------------------------------------------------------------------|
B|10---9--9---5--7-----------------------------------------------------------|
G|-9---9--9---6--7-------x4--------------------------------------------------|
D|---------------------------------------------------------------------------|
A|---------------------------------------------------------------------------|
E|---------------------------------------------------------------------------|

2:01 – 2:26
Guitar 2 (left panel)
e|---------------------------------------------------------------------------|
B|-10--9---5--7-------x7-----------------------------------------------------|
G|---------------------------------------------------------------------------|
D|---------------------------------------------------------------------------|
A|---------------------------------------------------------------------------|
E|---------------------------------------------------------------------------|

2:16 – 2:26
Guitar 1
e|14-14-14-14-14-14-14-14----repeat------------------------------------------|
B|---------------------------------------------------------------------------|
G|---------------------------------------------------------------------------|
D|---------------------------------------------------------------------------|
A|---------------------------------------------------------------------------|
E|---------------------------------------------------------------------------|

2:27 – 2:41
Guitar 1
e|12-12-------------12-12----------------------------------------------------|
B|------10-10-------------10-10----------------------------------------------|
G|------------11-11-------------11-11--------very-fast,-repeat-many-times----|
D|---------------------------------------------------------------------------|
A|---------------------------------------------------------------------------|
E|---------------------------------------------------------------------------|

Guitar 2 (right panel)
e|---------------------------------------------------------------------------|
B|10---9--9--5--10-7----14\10--12--9--5-10-9-7--10---------------------------|
G|-9---9--9--6-----7----11\-9---9--9--6----7-7---7------------------x2-------|
D|---------------------------------------------------------------------------|
A|---------------------------------------------------------------------------|
E|---------------------------------------------------------------------------|

Guitar 3 (left panel)
e|---------------------------------------------------------------------------|
B|10---9--9--5--7-7--------10---9--9--5-10-7-7--7----------------------------|
G|-9---9--9--6--7-7---------9---9--9--6----7-7--7-------------------x2-------|
D|---------------------------------------------------------------------------|
A|---------------------------------------------------------------------------|
E|---------------------------------------------------------------------------|

2:42 – 2:52
Guitar 2 (right panel)
e|12----12----12----12-------------------------------------------------------|
B|--10----10----10----10-----repeat------------------------------------------|
G|----11----11----11----11---------------------------------------------------|
D|---------------------------------------------------------------------------|
A|---------------------------------------------------------------------------|
E|---------------------------------------------------------------------------|

Guitar 3 (left panel)
e|-9--7---9--7---------------------------------------------------------------|
B|10--9--10--9---------------------------------------------------------------|
G|11--9--11--9---repeat------------------------------------------------------|
D|11--9--11--9---------------------------------------------------------------|
A|-9—-7---9--7---------------------------------------------------------------|
E|---------------------------------------------------------------------------|

2:53 – 3:05
Guitar 1
e|14-14-14-14-14-14-14-14/15---very-fast,-repeat-----------------------------|
B|---------------------------------------------------------------------------|
G|---------------------------------------------------------------------------|
D|---------------------------------------------------------------------------|
A|---------------------------------------------------------------------------|
E|---------------------------------------------------------------------------|

Guitar 2 (right panel)
e|---------------------------------------------------------------------------|
B|14-14-14-14-12-12-12-12-14-14-14-14-15-15-15-15----------1414141412121212--|
G|-x--x--x--x--x--x--x--x--x--x--x--x--x--x--x--x—-x3-then--x-x-x-x-x-x-x-x--|
D|11-11-11-11--9--9--9--9-11-11-11-11-12-12-12-12----------11111111-9-9-9-9--|
A|---------------------------------------------------------------------------|
E|---------------------------------------------------------------------------|

Guitar 3 (left panel)
e|-9--9-7-7--9--9-10-10--------------9--9-7-7--------------------------------|
B|10-10-9-9-10-10-12-12-------------10-10-9-9--------------------------------|
G|11-11-9-9-11-11-12-12—--x3--then--11-11-9-9--------------------------------|
D|11-11-9-9-11-11-12-12-------------11-11-9-9--------------------------------|
A|-9--9-7-7--9--9-10-10--------------9--9-7-7--------------------------------|
E|---------------------------------------------------------------------------|

3:05 – 3:12
Guitar 1
e|17-17-17-17-17-17-17-17----very-fast,-repeat-------------------------------|
B|---------------------------------------------------------------------------|
G|---------------------------------------------------------------------------|
D|---------------------------------------------------------------------------|
A|---------------------------------------------------------------------------|
E|---------------------------------------------------------------------------|

Guitar 2 (right panel)
e|-9--9---10-10--------------------------------------------------------------|
B|10-10---12-12--------------------------------------------------------------|
G|11-11---12-12---x4---------------------------------------------------------|
D|11-11---12-12--------------------------------------------------------------|
A|-9--9---10-10--------------------------------------------------------------|
E|---------------------------------------------------------------------------|

Guitar 3 (left panel)
e|17-17--17-17----x4---------------------------------------------------------|
B|---------------------------------------------------------------------------|
G|---------------------------------------------------------------------------|
D|---------------------------------------------------------------------------|
A|---------------------------------------------------------------------------|
E|---------------------------------------------------------------------------|

3:13 – end
Guitars 1 & 3
e|14-------------------------------------------------------------------------|
B|---------------------------------------------------------------------------|
G|---------------------------------------------------------------------------|
D|---------------------------------------------------------------------------|
A|---------------------------------------------------------------------------|
E|---------------------------------------------------------------------------|

Guitar 2
e|-9-------------------------------------------------------------------------|
B|10-------------------------------------------------------------------------|
G|11-------------------------------------------------------------------------|
D|11-------------------------------------------------------------------------|
A|-9-------------------------------------------------------------------------|
E|---------------------------------------------------------------------------|


| /  slide up
| \  slide down
| h  hammer-on
| p  pull-off
| ~  vibrato
| +  harmonic
| x  Mute note
===============================================================================


            
            
Suggest correction
Creating personal tab
Creating personal tab
You can edit any tab online and save it as your Personal.

You can edit, replace or remove any tab part or add personal notes – all changes will be seen only by you.

Personal tabs can be accessed anytime from any device, even offline.
Learn more »
comments
print report bad tab
2 comments total.
0 reply
Daniel Pearce 222 Mar 11, 2007 12:48 AM

This is an excellent tab!

0 reply
Ciaran:D 10 Mar 18, 2009 08:26 AM

what do you mean, left and right panel?

guest
You may want to rate the tab now too:
select rating
Wanna post a correction for this tab? Suggest correction