Oops, an error
Loading. Please wait.

In The Morning tab

version 3
version 3

Whole song

Interactive

23,664 views 39 this week
1 commentread comment
1 2 3 4 5
x 9
add to favorites
×
Save as Personal and add changes to this tab that will be seen only by you. Learn more ›
×
You can save this tab as Personal to edit and correct it or add notes. All changes will be seen only by you. Learn more »
launch autoscroll
font size
0
reset
how to read this tab
guitar tuner
edit
Autoscroll
slow
fast
+/-
esc
set tempo
stop
Author
Difficulty
RAZORLIGHT - IN THE MORNING

normal tuning


Intro
   G (intro riff)                       Em  (intro riff)
e|-12------------------------------------7------------------------------|
b|-12------------------------15-15—12----8-------------------------10-8-|
g|-12---MAINTAIN---14-14-14--------------9--MAINTAIN---7-7-7-10-7-------|
d|-12-----CHORD--------------------------9----CHORD---------------------|
a|-10------------------------------------7------------------------------|
e|----------------------------------------------------------------------|


Verse 1 (arent actually any guitar chords over the verse, just bass and some riffs but u can play these)

 G
I don't know what I'm doing wrong
 G
Maybe I've been here too long
  Em
The songs on the radio sound the same
 Em
Everybody just looks the same
         G
But then last night was so much fun
 G
And now your sheets are dirty
Em
The streets are dirty too but
Em
You never look back over what you've done

Bridge
Am
Remember when you were young
       C         D
You'd lose yourself

Chorus
 G                                             Em (plus intro riff)
In the morning, you know you won't remember a thing
In the morning, you know it's gonna be alright


Verse 2
Wake him up, warm him up
Put him on the stage, well
The boy can't help it, it's not his fault
Just a dangerous dangerous thing
But then every night's still so much fun
And you're still out there darling
Clinging on to the wrong ideas but
I never regret anything I've done


repeat Bridge


Chorus 2
 G                                           Em
In the morning you know he won't remember a thing
 G                                       Em
In the morning you know it's gonna be alright
 C                                            G
In the morning, you know he won't remember a thing
 C                                           Em
In the morning, you know its gonna be all. . .


Solo  (played over the chords Am  C  D)

E----------------------------------------------------10-----------|
B--13-12-10-----------------------13-12-10------------------------|
G-----------12-11-9------------------------12-11-12-----11-12-----|
D-------------------12-10-9---------------------------------------|
A---------------------------12------------------------------------|
E-----------------------------------------------------------------|

E------12-7------10-12-10-12-----------17----14-15-17--------17----14-15-14-15--|
B----8------------------------------15----15----------15--15----15--------------|
G--9--------x3------------------------------------------------------------------|
D-------------------------------------------------------------------------------|
A--intro riff plays over the top for this section->->---------------------------|
E-------------------------------------------------------------------------------|

repeat Chorus 2


Outro
Em (plus into riff) C  B (as bar chords) x2

Are you really gonna do it this time? (over and over)

In the morning you know he won't remember a thing
No not a thing and
In the morning you know he won't remember a thing


Cheers - any queries email me at katch022@hotmail.com

            
            
Suggest correction
Creating personal tab
Creating personal tab
You can edit any tab online and save it as your Personal.

You can edit, replace or remove any tab part or add personal notes – all changes will be seen only by you.

Personal tabs can be accessed anytime from any device, even offline.
Learn more »
comments
print report bad tab
1 comment total.
0 reply
beno93 277 Jan 15, 2007 01:01 AM

yes it may sond rite but the chord positions are much different
but its ok well done

guest
You may want to rate the tab now too:
select rating
Wanna post a correction for this tab? Suggest correction