Oops, an error
Loading. Please wait.

Waiting tab

version 1
version 1

Whole song

Interactive

136 views 1 this week
no commentswrite comment
1 2 3 4 5
3 more votes to show rating
add to favorites
×
Save as Personal and add changes to this tab that will be seen only by you. Learn more ›
×
You can save this tab as Personal to edit and correct it or add notes. All changes will be seen only by you. Learn more »
launch autoscroll
font size
0
reset
how to read this tab
guitar tuner
edit
Autoscroll
slow
fast
+/-
esc
set tempo
stop
Waiting                                     


                                                                   Ready The Way
Track 1
Tuning: DGCFAD



     E  E  E   E   E   E   E  E      E   E   E   E   E   E   E   E   
D||------------------------------|----------------------------------|
A||------------------------------|----------------------------------|
F||------------------------------|----------------------------------|
C||-------------------14---------|--14--14--14--14--14--14--14--14--|
G||---------------14------14-----|--15--15--15--15--15--15--15--15--|
D||--0--0--0--15--------------0--|----------------------------------|


  E   E   E   E   E   E   E   E      E   E   E   E   E   E   Q     
---------------------------------|--------------------------------|
---------------------------------|--------------------------------|
-----17--17--17--17--16--16--16--|--16--16--16--16--16--16--16----|
-----14--14--14--14--14--14--14--|--14--17--17--17--17--17--17----|
-----15--15--15--15--15--15--15--|--15--15--15--15--15--14--14----|
---------------------------------|----------------------15--15----|


  E  E  E   E   E   E   E  E      E   E   E   E   E   E   E   E   
------------------------------|----------------------------------|
------------------------------|----------------------------------|
------------------------------|----------------------------------|
-------------------14---------|--14--14--14--14--14--14--14--14--|
---------------14------14-----|--15--15--15--15--15--15--15--15--|
--0--0--0--15--------------0--|----------------------------------|


  E   E   E   E   E   E   E   E      E   E   E   E   H         
-----------------------------15--|--15--14--14--14--14--------|
---------------------------------|--------------15--15--------|
-----17--17--17--17--16--16------|----------------------------|
-----14--14--14--14--14--14------|----------------------------|
-----15--15--15--15--15--15------|----------------------------|
---------------------------------|----------------------------|


  E  E  E   E   E   E   E  E      E   E   E   E   E   E   E   E   
------------------------------|----------------------------------|
------------------------------|----------------------------------|
------------------------------|----------------------------------|
-------------------14---------|--14--14--14--14--14--14--14--14--|
---------------14------14-----|--15--15--15--15--15--15--15--15--|
--0--0--0--15--------------0--|----------------------------------|


  E   E   E   E   E   E   E   E      E   E   E   E   E   E   Q     
---------------------------------|--------------------------------|
---------------------------------|--------------------------------|
-----17--17--17--17--16--16--16--|--16--16--16--16--16--16--16----|
-----14--14--14--14--14--14--14--|--14--17--17--17--17--17--17----|
-----15--15--15--15--15--15--15--|--15--15--15--15--15--14--14----|
---------------------------------|----------------------15--15----|


  E  E  E   E   E   E   E  E      E   E   E   E   E   E   E   E   
------------------------------|----------------------------------|
------------------------------|----------------------------------|
------------------------------|----------------------------------|
-------------------14---------|--14--14--14--14--14--14--14--14--|
---------------14------14-----|--15--15--15--15--15--15--15--15--|
--0--0--0--15--------------0--|----------------------------------|


  E   E   E   E   E   E   E   E      E   E   E   E   H         
-----------------------------15--|--15--14--14--14--14--------|
---------------------------------|--------------15--15--------|
-----17--17--17--17--16--16------|----------------------------|
-----14--14--14--14--14--14------|----------------------------|
-----15--15--15--15--15--15------|----------------------------|
---------------------------------|----------------------------|


  E  E  E   E   E   E   E  E      E   E   E   E   E   E   E   E   
------------------------------|----------------------------------|
------------------------------|----------------------------------|
------------------------------|----------------------------------|
-------------------14---------|--14--14--14--14--14--14--14--14--|
---------------14------14-----|--15--15--15--15--15--15--15--15--|
--0--0--0--15--------------0--|----------------------------------|


  E   E   E   E   E   E   E   E      E   E   E   E   E   E   Q     
---------------------------------|--------------------------------|
---------------------------------|--------------------------------|
-----17--17--17--17--16--16--16--|--16--16--16--16--16--16--16----|
-----14--14--14--14--14--14--14--|--14--17--17--17--17--17--17----|
-----15--15--15--15--15--15--15--|--15--15--15--15--15--14--14----|
---------------------------------|----------------------15--15----|


  E  E  E   E   E   E   E  E      E   E   E   E   E   E   E   E   
------------------------------|----------------------------------|
------------------------------|----------------------------------|
------------------------------|----------------------------------|
-------------------14---------|--14--14--14--14--14--14--14--14--|
---------------14------14-----|--15--15--15--15--15--15--15--15--|
--0--0--0--15--------------0--|----------------------------------|


  E   E   E   E   E   E   E   E      E   E   E   E   H         
-----------------------------15--|--15--14--14--14--14--------|
---------------------------------|--------------15--15--------|
-----17--17--17--17--16--16------|----------------------------|
-----14--14--14--14--14--14------|----------------------------|
-----15--15--15--15--15--15------|----------------------------|
---------------------------------|----------------------------|


                                            PM PM PM PM  
  Q    E  E  E  Q    E     E  E  Q    E  E  S  S  S  S   
------------------------|-------------------------------|
------------------------|-------------------------------|
------------------------|-------------------------------|
--2----2-----2--2----2--|-----2--2----2-----------------|
--3----0-----0--3----0--|-----0--3----0-----0--0--0--0--|
--3----0-----0--3----0--|-----0--3----0-----0--0--0--0--|


                              PM PM PM PM   PM   PM                             
                                       |----3----|                              
  Q    E  E  E  Q    E     E  E  E  E  Q    Q    Q       Q    E  E  E  Q    E   
------------------------|-----------------------------|------------------------|
------------------------|-----------------------------|------------------------|
------------------------|-----------------------------|------------------------|
--2----2-----2--2----2--|-----------------------------|--2----2-----2--2----2--|
--3----0-----0--3----0--|-----2--2--2--2----2----2----|--3----0-----0--3----0--|
--3----0-----0--3----0--|-----0--0--0--0----0----0----|--3----0-----0--3----0--|


                   PM PM PM PM                           
  E  E  Q    E  E  S  S  S  S     Q    E  E  E  Q    E   
-------------------------------|------------------------|
-------------------------------|------------------------|
-------------------------------|------------------------|
-----2--2----2-----------------|--2----2-----2--2----2--|
-----0--3----0-----0--0--0--0--|--3----0-----0--3----0--|
-----0--3----0-----0--0--0--0--|--3----0-----0--3----0--|


     PM PM PM PM   PM   PM                             
              |----3----|                              
  E  E  E  E  Q    Q    Q       Q    E  E  E  Q    E   
-----------------------------|------------------------|
-----------------------------|------------------------|
-----------------------------|------------------------|
-----------------------------|--2----2-----2--2----2--|
-----2--2--2--2----2----2----|--3----0-----0--3----0--|
-----0--0--0--0----0----0----|--3----0-----0--3----0--|


                   PM PM PM PM                           
  E  E  Q    E  E  S  S  S  S     Q    E  E  E  Q    E   
-------------------------------|------------------------|
-------------------------------|------------------------|
-------------------------------|------------------------|
-----2--2----2-----------------|--2----2-----2--2----2--|
-----0--3----0-----0--0--0--0--|--3----0-----0--3----0--|
-----0--3----0-----0--0--0--0--|--3----0-----0--3----0--|


     PM PM PM PM   PM   PM                             
              |----3----|                              
  E  E  E  E  Q    Q    Q       Q    E  E  E  Q    E   
-----------------------------|------------------------|
-----------------------------|------------------------|
-----------------------------|------------------------|
-----------------------------|--2----2-----2--2----2--|
-----2--2--2--2----2----2----|--3----0-----0--3----0--|
-----0--0--0--0----0----0----|--3----0-----0--3----0--|


                   PM PM PM PM                           
  E  E  Q    E  E  S  S  S  S     Q    E  E  E  Q    E   
-------------------------------|------------------------|
-------------------------------|------------------------|
-------------------------------|------------------------|
-----2--2----2-----------------|--2----2-----2--2----2--|
-----0--3----0-----0--0--0--0--|--3----0-----0--3----0--|
-----0--3----0-----0--0--0--0--|--3----0-----0--3----0--|


     PM PM PM PM   PM   PM         PM PM PM PM   PM   PM    
              |----3----|                   |----3----|     
  E  E  E  E  Q    Q    Q       E  E  E  E  Q    Q    Q     
-----------------------------|-----------------------------|
-----------------------------|-----------------------------|
-----------------------------|-----------------------------|
-----------------------------|-----------------------------|
-----2--2--2--2----2----2----|-----2--2--2--2----2----2----|
-----0--0--0--0----0----0----|-----0--0--0--0----0----0----|


  E  E  E  E  E  E  E  E     E  E  E  E  E  E  E  E   
--------------------------|--------------------------|
--------------------------|--------------------------|
--5--5--5--5--5--5--5--5--|--5--5--5--5--5--5--5-----|
--7--7--7--7--7--7--7--7--|--7--7--7--7--7--7--7--5--|
--7--7--7--7--7--7--7--7--|--7--7--7--7--7--7--7--7--|
--------------------------|-----------------------7--|


  E  E  E  E  E  E  E  E     E  E  E  E  E  E  E  E   
--------------------------|--------------------------|
--------------------------|--------------------------|
--------------------------|-----------------------5--|
--L--5--5--5--5--5--5--5--|--5--5--5--5--5--5--5--7--|
--L--7--7--7--7--7--7--7--|--7--7--7--7--7--7--7--7--|
--L--7--7--7--7--7--7--7--|--7--7--7--7--7--7--7-----|


  E  E  E  E  E  E  E  E     E  E  E  E  E  E  E  E   
--------------------------|--------------------------|
--------------------------|--------------------------|
--L--5--5--5--5--5--5--5--|--5--5--5--5--5--5--5-----|
--L--7--7--7--7--7--7--7--|--7--7--7--7--7--7--7--5--|
--L--7--7--7--7--7--7--7--|--7--7--7--7--7--7--7--7--|
--------------------------|-----------------------7--|


  E  E  E  E  E  E  E  E     E  E  E  E  E  E  E  E   
--------------------------|--------------------------|
--------------------------|--------------------------|
--------------------------|-----------------------5--|
--L--5--5--5--5--5--5--5--|--5--5--5--5--5--5--5--7--|
--L--7--7--7--7--7--7--7--|--7--7--7--7--7--7--7--7--|
--L--7--7--7--7--7--7--7--|--7--7--7--7--7--7--7-----|


  E  E  E  E  E  E  E  E     E  E  E  E  E  E  E  E   
--------------------------|--------------------------|
--------------------------|--------------------------|
--L--5--5--5--5--5--5--5--|--5--5--5--5--5--5--5-----|
--L--7--7--7--7--7--7--7--|--7--7--7--7--7--7--7--5--|
--L--7--7--7--7--7--7--7--|--7--7--7--7--7--7--7--7--|
--------------------------|-----------------------7--|


  E  E  E  E  E  E  E  E     E  E  E  E  E  E  E  E   
--------------------------|--------------------------|
--------------------------|--------------------------|
--------------------------|-----------------------5--|
--L--5--5--5--5--5--5--5--|--5--5--5--5--5--5--5--7--|
--L--7--7--7--7--7--7--7--|--7--7--7--7--7--7--7--7--|
--L--7--7--7--7--7--7--7--|--7--7--7--7--7--7--7-----|


  E  E  E  E  E  E  E  E     E  E  E  E  E  E  E  E   
--------------------------|--------------------------|
--------------------------|--------------------------|
--L--5--5--5--5--5--5--5--|--5--5--5--5--5--5--5-----|
--L--7--7--7--7--7--7--7--|--7--7--7--7--7--7--7--5--|
--L--7--7--7--7--7--7--7--|--7--7--7--7--7--7--7--7--|
--------------------------|-----------------------7--|


  E  E  E  E  E  E  E  E     E  E  E  E  E  E  Q     
--------------------------|-------------------------|
--------------------------|-------------------------|
--------------------------|-------------------------|
--L--5--5--5--5--5--5--5--|--5--5--5--5--5--5--5----|
--L--7--7--7--7--7--7--7--|--7--7--7--7--7--7--7----|
--L--7--7--7--7--7--7--7--|--7--7--7--7--7--7--7----|


  ^          ^        ^       ^       ^       ^       ^          ^             
  T. T. T. S S  S  S  S   S S S  S  S S  S  S S  S  S T. T. T. S S  S  T    T  
--7h-8p-7p-0---------10s-12---8p-7p-0------------------------------------|----|
-------------8p-7p-0------------------8p-7p-0----------------------------|----|
----------------------------------------------7p-5p-0-4h-5p-4p-0---------|----|
-----------------------------------------------------------------5p-4p-0-|--L-|
-------------------------------------------------------------------------|----|
-------------------------------------------------------------------------|----|


                     PM PM PM PM PM PM          PM PM PM PM PM PM PM PM        
   E   E   E   E  E  S  S  S  S  S  S     E  E  S  S  S  S  S  S  S  S  E  E   
---------------------------------------|--------------------------------------|
---------------------------------------|--------------------------------------|
---------------------------------------|--------------------------------------|
---------------------------------------|--------------------------------------|
---9---9---9---9-----7--7--7--7--7--7--|--7-----7--7--7--7--7--7--7--7--7-----|
--10--10--10--10-----8--8--8--8--8--8--|--8-----8--8--8--8--8--8--8--8--8-----|


                     PM PM PM PM PM PM          PM PM PM PM PM PM PM PM        
   E   E   E   E  E  S  S  S  S  S  S     E  E  S  S  S  S  S  S  S  S  E  E   
---------------------------------------|--------------------------------------|
---------------------------------------|--------------------------------------|
---------------------------------------|--------------------------------------|
---------------------------------------|--------------------------------------|
---9---9---9---9-----7--7--7--7--7--7--|--7-----7--7--7--7--7--7--7--7--7-----|
--10--10--10--10-----8--8--8--8--8--8--|--8-----8--8--8--8--8--8--8--8--8-----|


                     PM PM PM PM PM PM          PM PM PM PM PM PM PM PM        
   E   E   E   E  E  S  S  S  S  S  S     E  E  S  S  S  S  S  S  S  S  E  E   
---------------------------------------|--------------------------------------|
---------------------------------------|--------------------------------------|
---------------------------------------|--------------------------------------|
---------------------------------------|--------------------------------------|
---9---9---9---9-----7--7--7--7--7--7--|--7-----7--7--7--7--7--7--7--7--7-----|
--10--10--10--10-----8--8--8--8--8--8--|--8-----8--8--8--8--8--8--8--8--8-----|


                     PM PM PM PM PM PM                         
   E   E   E   E  E  S  S  S  S  S  S     E  E  H.             
---------------------------------------|----------------------|
---------------------------------------|----------------------|
---------------------------------------|----------------------|
---------------------------------------|----------------------|
---9---9---9---9-----7--7--7--7--7--7--|--7-----7-------------|
--10--10--10--10-----8--8--8--8--8--8--|--8-----8s------------|


  * Wait for Ride Bell                               
  PM                    PM PM       PM                   PM PM PM PM PM  
  E                     E  E  E  E  S                    S  S  S  S  S   
------------------------------------------------------------------------|
------------------------------------------------------------------------|
------------------------------------------------------------------------|
--2---------------------2--2--2-----2--------------------2--2--2--2--2--|
--1---------------------1--1--1-----1--------------------1--1--1--1--1--|
--0---------------------0--0--0-----0--------------------0--0--0--0--0--|


        PM PM PM PM PM PM PM PM          PM PM PM       PM PM PM PM PM PM  
  E  E  S  S  S  S  S  S  S  S  E  E     E  E  E  E  E  S  S  S  S  S  S   
--------------------------------------|-----------------------------------|
--------------------------------------|-----------------------------------|
--------------------------------------|-----------------------------------|
--2-----2--2--2--2--2--2--2--2--2-----|--2--2--2--2-----2--2--2--2--2--2--|
--1-----1--1--1--1--1--1--1--1--1-----|--1--1--1--1-----1--1--1--1--1--1--|
--0-----0--0--0--0--0--0--0--0--0-----|--0--0--0--0-----0--0--0--0--0--0--|


        PM PM PM PM PM PM PM PM          PM PM PM       PM PM PM PM PM PM  
  E  E  S  S  S  S  S  S  S  S  E  E     E  E  E  E  E  S  S  S  S  S  S   
--------------------------------------|-----------------------------------|
--------------------------------------|-----------------------------------|
--------------------------------------|-----------------------------------|
--2-----2--2--2--2--2--2--2--2--2-----|--2--2--2--2-----2--2--2--2--2--2--|
--1-----1--1--1--1--1--1--1--1--1-----|--1--1--1--1-----1--1--1--1--1--1--|
--0-----0--0--0--0--0--0--0--0--0-----|--0--0--0--0-----0--0--0--0--0--0--|


        PM PM PM PM PM PM PM PM           PM  PM  PM         PM PM PM PM PM PM 
  E  E  S  S  S  S  S  S  S  S  Q         E   E   E   E  E   S  S  S  S  S  S  
--------------------------------------|---------------------------------------|
--------------------------------------|---------------------------------------|
--------------------------------------|---------------------------------------|
--2-----2--2--2--2--2--2--2--2--2-----|--14--14--14--14-----14-14-14-14-14-14-|
--1-----1--1--1--1--1--1--1--1--1-----|--13--13--13--13-----13-13-13-13-13-13-|
--0-----0--0--0--0--0--0--0--0--0s----|---0---0---0---0------0--0--0--0--0--0-|


   E  E   S  S  S  S  S  S  S  S  E  E     E  E  E   E   E   E   E  E   
----------------------------------------|------------------------------|
----------------------------------------|------------------------------|
----------------------------------------|------------------------------|
--14-----14-14-14-14-14-14-14-14-14-----|-------------------14---------|
--13-----13-13-13-13-13-13-13-13-13-----|---------------14------14-----|
---0------0--0--0--0--0--0--0--0--0-----|--0--0--0--15--------------0--|


   E   E   E   E   E   E   E   E     E   E   E   E   E   E   E   S S  
----------------------------------|----------------------------------|
----------------------------------|----------------------------------|
----------------------------------|-----17--17--17--17--16--16--16-L-|
--14--14--14--14--14--14--14--14--|-----14--14--14--14--14--14--14-L-|
--15--15--15--15--15--15--15--15--|-----15--15--15--15--15--15--15-L-|
----------------------------------|----------------------------------|


   E   E   E   E   E   E   Q       E  E  E   E   E   E   E  E   
--------------------------------|------------------------------|
--------------------------------|------------------------------|
--16--16--16--16--16--16--16----|------------------------------|
--14--17--17--17--17--17--17----|-------------------14---------|
--15--15--15--15--15--14--14----|---------------14------14-----|
----------------------15--15----|--0--0--0--15--------------0--|


   E   E   E   E   E   E   E   E     E   E   E   E   E   E   E   E   
----------------------------------|-----------------------------15--|
----------------------------------|---------------------------------|
----------------------------------|-----17--17--17--17--16--16------|
--14--14--14--14--14--14--14--14--|-----14--14--14--14--14--14------|
--15--15--15--15--15--15--15--15--|-----15--15--15--15--15--15------|
----------------------------------|---------------------------------|


   E   E   E   E   H           E  E  E   E   E   E   E  E   
--15--14--14--14--14--------|------------------------------|
--------------15--15--------|------------------------------|
----------------------------|------------------------------|
----------------------------|-------------------14---------|
----------------------------|---------------14------14-----|
----------------------------|--0--0--0--15--------------0--|


   E   E   E   E   E   E   E   E     E   E   E   E   E   E   E   S S  
----------------------------------|----------------------------------|
----------------------------------|----------------------------------|
----------------------------------|-----17--17--17--17--16--16--16-L-|
--14--14--14--14--14--14--14--14--|-----14--14--14--14--14--14--14-L-|
--15--15--15--15--15--15--15--15--|-----15--15--15--15--15--15--15-L-|
----------------------------------|----------------------------------|


   E   E   E   E   E   E   Q       E  E  E   E   E   E   E  E   
--------------------------------|------------------------------|
--------------------------------|------------------------------|
--16--16--16--16--16--16--16----|------------------------------|
--14--17--17--17--17--17--17----|-------------------14---------|
--15--15--15--15--15--14--14----|---------------14------14-----|
----------------------15--15----|--0--0--0--15--------------0--|


   E   E   E   E   E   E   E   E     E   E   E   E   E   E   E   E   
----------------------------------|-----------------------------15--|
----------------------------------|---------------------------------|
----------------------------------|-----17--17--17--17--16--16------|
--14--14--14--14--14--14--14--14--|-----14--14--14--14--14--14------|
--15--15--15--15--15--15--15--15--|-----15--15--15--15--15--15------|
----------------------------------|---------------------------------|


   E   E   E   E   H            Q.      Q.      Q       H.            E  E   
--15--14--14--14--14--------|------------------------|----------------------|
--------------15--15--------|------------------------|----------------------|
----------------------------|------------------------|----------------------|
----------------------------|------------------------|----------------------|
----------------------------|--10------10------10----|--L-------------L--2--|
----------------------------|---8-------8-------8----|--L-------------L--0--|


                                        PM PM                           
  E  Q.     H           H.           E  S  S      Q.      Q.      Q     
---------------------|------------------------|------------------------|
---------------------|------------------------|------------------------|
---------------------|------------------------|------------------------|
---------------------|------------------------|------------------------|
--2------------------|------------------------|--10------10------10----|
--0------------------|------------------0--0--|---8-------8-------8----|


  H.            E  E     E  Q.     H           W                 
----------------------|---------------------|-------------------|
----------------------|---------------------|-------------------|
----------------------|---------------------|-------------------|
----------------------|---------------------|-------------------|
--L-------------L--2--|--2------------------|-------------------|
--L-------------L--0--|--0------------------|-------------------|


                             ^            ^                          
    E   E    E   E   E   E   E    E       E  E  E  E  E   E   E  E   
|---0--15p--12p--0--------------------|-----------------------------|
|-------------------15p--0--12s--13s--|--12--0--8--0--7s--8s--7--0--|
|*------------------------------------|-----------------------------|
|*------------------------------------|-----------------------------|
|-------------------------------------|-----------------------------|
|-------------------------------------|-----------------------------|


  E  E  E  E  E  E  E  E     E  E  E  E  E  E  Q     
--------------------------|-------------------------|
--5--5--5--5--5--5--5--5--|--5--5--5--5--5--5--5----|
-----------------7--7--7--|--7--7--7--7--7--7--7----|
--------------------------|-------------------------|
--------------------------|-------------------------|
--------------------------|-------------------------|


  E   E    E   E   E   E   E    E       E  E  E  E  E   E   E  E   
--0--15p--12p--0--------------------|-----------------------------|
------------------15p--0--12s--13s--|--12--0--8--0--7s--8s--7--0--|
------------------------------------|-----------------------------|
------------------------------------|-----------------------------|
------------------------------------|-----------------------------|
------------------------------------|-----------------------------|


  E  E  E  E  E  E  E  E     E  E  E  E  E  E  Q     5x
--------------------------|--------------------------||
--5--5--5--5--5--5--5--5--|--5--5--5--5--5--5--5-----||
-----------------7--7--7--|--7--5--5--5--5--5--5----*||
--------------------------|-------------------------*||
--------------------------|--------------------------||
--------------------------|--------------------------||


   E   E    E   E   E   E   E    E     E   E    E   E   E    Q.      4x
---0--15p--12p--0----------17s--19--|-----15p--14p--0----------------||
-------------------15p--0-----------|------------------15s--17-------||
*-----------------------------------|-------------------------------*||
*-----------------------------------|-------------------------------*||
------------------------------------|--------------------------------||
------------------------------------|--------------------------------||


   Last time is solo                                 
   E                  E    E   E   E   E   E    E    
---0-----------------15p--12p--0--------------------|
----------------------------------15p--0--12s--13s--|
*---------------------------------------------------|
*---------------------------------------------------|
----------------------------------------------------|
----------------------------------------------------|


   E  E  E  E  E   E   E  E     E  E  E  E  E  E  E  E   
-----------------------------|--------------------------|
--12--0--8--0--7s--8s--7--0--|--5--5--5--5--5--5--5--5--|
-----------------------------|-----------------7--7--7--|
-----------------------------|--------------------------|
-----------------------------|--------------------------|
-----------------------------|--------------------------|


  E  E  E  E  E  E  Q       E   E    E   E   E   E   E    E    
-------------------------|--0--15p--12p--0--------------------|
--5--5--5--5--5--5--5----|------------------15p--0--12s--13s--|
--7--7--7--7--7--7--7----|------------------------------------|
-------------------------|------------------------------------|
-------------------------|------------------------------------|
-------------------------|------------------------------------|


   E  E  E  E  E   E   E  E     E  E  E  E  E  E  E  E   
-----------------------------|--------------------------|
--12--0--8--0--7s--8s--7--0--|--5--5--5--5--5--5--5--5--|
-----------------------------|-----------------7--7--7--|
-----------------------------|--------------------------|
-----------------------------|--------------------------|
-----------------------------|--------------------------|


  E  E  E  E  E  E  Q         W                  
--------------------------||-------------------||
--5--5--5--5--5--5--5-----||-------------------||
--7--5--5--5--5--5--5----*||-------------------||
-------------------------*||-------------------||
--------------------------||-------------------||
--------------------------||-------------------||




Duration Legend
---------------
W - whole
H - half
Q - quarter
E - 8th
S - 16th
T - 32nd
X - 64th
. - note dotted
|-n-|  - n-tuplets


Tablature Legend
----------------
L - tied note
x - dead note
g - grace note
(n) - ghost note
> - accentuded note
NH - natural harmonic
AH - artificial harmonic
TH - tapped harmonic
SH - semi harmonic
PH - pitch harmonic
h - hammer on
p - pull off
b - bend
br - bendRelease
pb - preBend
pbr - preBendRelease
brb - bendReleaseBend
\n/ - tremolo bar dip
\n - tremolo bar dive
-/n - tremolo bar Release up
/n\ - tremolo bar inverted dip
/n - tremolo bar return
-\n - tremolo bar Release down
S - shift slide
s - legato slide
/ -  slide into from below or out of upwards
\ -  slide into from above or out of downwards
~ - vibrato
W - wide vibrato
tr - trill
TP - tremolo picking
T - tapping
S - slap
P - pop
< - fade in
^ - brush up
v - brush down

            
            
Suggest correction
Creating personal tab
Creating personal tab
You can edit any tab online and save it as your Personal.

You can edit, replace or remove any tab part or add personal notes – all changes will be seen only by you.

Personal tabs can be accessed anytime from any device, even offline.
Learn more »
Give kudos to tab author, rate the tab!
1 2 3 4 5
comments
print report bad tab
guest
You may want to rate the tab now too:
select rating
Wanna post a correction for this tab? Suggest correction