Oops, an error
Loading. Please wait.

La Venenosa chords

84 views 1 this week
no commentswrite comment
1 2 3 4 5
3 more votes to show rating
add to favorites
×
Save as Personal and add changes to this tab that will be seen only by you. Learn more ›
×
You can save this tab as Personal to edit and correct it or add notes. All changes will be seen only by you. Learn more »
launch autoscroll
font size
0
reset
transpose
0
reset
simplify chords
display chords
guitar tuner
edit
Autoscroll
slow
fast
+/-
esc
set tempo
stop
Strumming
There is no strumming pattern for this song yet. and get +5 IQ
D                     F#m  A
 Me consumí fumando...

         D                              Cm    
la venenosa, pa' no sentir los golpes 


           Bm 
que da la vida.


              Em       Bm
Quise faltarle a Dios 


               
por pura rabia,


                 F#m     A
por que caí en tu amor  


       D
de calavera.


                     F#m   A
Y se me fue acabando, 


             Dsus 
sorbo a sorbito,[riff 1] -2 TIEMPOS-


                               Dsus7   
como si fuera mi alma,[riff 1] 


         Dsus7   Dbsus7   Esus7   A   Bm   Cm   C#m
pura charanda, 


              A   Bm   Cm   C#m
y me jodÍ la voz 


             Bm
cuando te fuiste,[riff 2]


                 G 
pues me pase la noche[riff 3] 


          A7  
aullando penas.[riff 4]


Solo:  Bm   G   Em   Bm   D-A   Dsus  Dsus7


         Dsus7   Dbsus7   Esus7   A   Bm   Cm   C#m
Pura charanda, 


              A   Bm   Cm   C#m
y me jodí la voz 


             Bm
cuando te fuiste,[riff 2]


                 G 
pues me pase la noche[riff 3] 


          A7  
aullando penas.[riff 5]


Me consumí fuamando...


            Dsus
la venenosa[riff 6]


ESTOS SON ALGUNOS ACORDES NO MUY COMUNES EN LA GUITARRA POPULAR:

Dsus   Dsus7    Db sus7    Esus7
 5       5         4         7         
 5       5         4         7           
 7       5         4         7            
 7       7         6         9              
 5       5         4         7            
 5       5         4         7            


    riff 1           riff 2               riff 3          riff 4 
                             ~~~~                 ~~~~
|-------7-5--|--------------------|--------------------|------9--|                
|------------|--------------------|--------------------|---------|
|--5/7-------|------7h8---9-7-----|------3h4---5-4-----|--7/9----|
|------------|--999-----9---------|--555-----5---------|---------|
|------------|--------------------|--------------------|---------|
|------------|--------------------|--------------------|---------|


                     riff 5                               riff 6   
 
|------9--------10----------11----------12-----9--|------------------5--|
|----------------------------------------------8--|------------------5--|
|--7/9---9-9/10----10-10/11----11-11/12----12--9--|------------------7--|
|-------------------------------------------------|----9-7-----------7--|
|-------------------------------------------------|--9-----10-9-7-5--5--|
|-------------------------------------------------|------------------5--|


X/Y [slide]  Puntear y luego deslizar del traste ''X'' al ''Y''
XhY (hammer) Puntear en el traste ''X'' y luego martillar en ''Y''
~~~~         Mano izquierda vibrando

            
            
Suggest correction
Creating personal tab
Creating personal tab
You can edit any tab online and save it as your Personal.

You can edit, replace or remove any tab part or add personal notes – all changes will be seen only by you.

Personal tabs can be accessed anytime from any device, even offline.
Learn more »
Give kudos to tab author, rate the tab!
1 2 3 4 5
comments
print report bad tab
guest
Wanna post a correction for this tab? Suggest correction