Oops, an error
Loading. Please wait.

Mi Susy tab

16 views 1 this week
no commentswrite comment
1 2 3 4 5
3 more votes to show rating
add to favorites
×
Save as Personal and add changes to this tab that will be seen only by you. Learn more ›
×
You can save this tab as Personal to edit and correct it or add notes. All changes will be seen only by you. Learn more »
launch autoscroll
font size
0
reset
how to read this tab
guitar tuner
edit
Autoscroll
slow
fast
+/-
esc
set tempo
stop
Este swing de Real de Catorce esta muy weno. Ojála les guste:
Dedicada a mi adorada Rubí!!!!!

*-*-*-*-*-*-*-MI SUSY-*-*-*-*-*-*-*
==========Real de Catorce==========

Versos:
  Bb                   F
  1:                   2:
e]-6-6-X-6-X-6-X-6666-]-1-1-X-1-X-1-X-1111-]
B]-6-6-X-6-X-6-X-6666-]-1-1-X-1-X-1-X-1111-]
G]-X-X-X-X-X-X-X-XXXX-]-X-X-X-X-X-X-X-XXXX-]
D]--------------------]--------------------]
A]--------------------]--------------------]
E]--------------------]--------------------]

  Cm          Bb
  3:          4:
e]--3----3---]-6-6-X-6-X-5566--]
B]--4----4---]-6-6-X-6-X-6666--]
G]--X----X---]-X-X-X-X-X-XXXX--]
D]-----------]-----------------]
A]-----------]-----------------]
E]-----------]-----------------]

Coro:
  Bb                Bb7
  A:                B:              C:
e]-6-6-66-X-666666-]-8-8-88-666666-]-8-8-8-8-8----------]
B]-6-6-66-X-666666-]-6-6-66-666666-]-6-6-6-6-6-------11-]
G]-X-X-XX-X-XXXXXX-]---------------]-X-X-X-X-X--9-10----]
D]-----------------]---------------]--------------------]
A]-----------------]---------------]--------------------]
E]-----------------]---------------]--------------------]

Solo:
                                   x4 esta barra
e]------------5---]-10-10-10-1010-]--10p8p6----]
B]---8p6--------8-]-10-10-10-1010-]---------8--]
G]-------8-7-5----]---------------]------------]
D]-8--------------]---------------]------------]
A]----------------]---------------]------------]
E]----------------]---------------]------------]

e]--------------6---]-/5-5-55-5-5-/6-6-66-6-6--]
B]---6-8-8br--6---8-]-/6-6-66-6-6-/6-6-66-6-6--]
G]-8----------------]--------------------------]
D]------------------]--------------------------]
A]------------------]--------------------------]
E]------------------]--------------------------]

  X4 esta barra                   x2 esta barra
e]---------------]-6-6-66-x-88-6-]---------------]
B]---------------]-6-6-66-x-66-6-]---------------]
G]---66-88-1010--]---------------]----66-88-1010-]
D]-88------------]---------------]-88------------]
A]---------------]---------------]---------------]
E]---------------]---------------]---------------]
PM .... .. . .                     .. .. .. . .

                                inicia tompeta...
e]-/15-15-1515--8-1010-88-88-8-]-6666--6666--6666-6-6-66]
B]-/15-15-1515--8-8-8--88-88-8-]-6666--6666--6666-6-6-66]
G]-----------------------------]------------------------]
D]-----------------------------]------------------------]
A]-----------------------------]------------------------]
E]-----------------------------]------------------------]

Final:
e]---------4-6-8-10--4/6~-]
B]-----4-6-----------4/6~-]
G]-4-6--------------------]
D]------------------------]
A]------------------------]
E]------------------------]

*-*-*-*-*-*-*-*-*-*-*-*-*-*-*-*-*-*-*-*-*
          Ahora con la voz:

*-*-*-*
 Intro  *1 x2 veces
*-*-*-*

*-*-*-*
 Verso
*-*-*-*
*1
Mi Susy, no para de beber,
                      *2
Mi Susy, no para de beber.
       *1               *3
Apenas se despierta, se toma lo que encuentra.
     *4
Mi Susy, no para de beber.
-------------------------------------------------
*1
Mi Susy, se viste pa' beber,
                       *2
Mi Susy se viste pa' beber.
        *1                *3
Se arregla como reina, termina hecha una pena.
     *4
Mi Susy se viste pa' bebeer.
-------------------------------------------------
*-*-*-*
 Coro
*-*-*-*
*A
  No puede detenerse,
                                     *B
tiene la noche enredada en todo el cuerpo.
*A
  No quiere entender,
                             *C
se va a acostar con cuanto extraño ha de ver.
--------------------------------------------------
*-*-*-*
 Verso
*-*-*-*
*1
Mi Susy se cura con tequila.
                       *2
Mi Susy se cura con cerveza.
   *1                      *3
De golpe se emborracha, y agarra otra racha,
     *4
mi Susy no para de beber.
---------------------------------------------------
*-*-*-*
 Solos  (estructura de versos)
*-*-*-*

*-*-*-*
Puente
*-*-*-*
          (Solo Bateria)
MI Susy, MI Susy, MI Susy, MI Susy,
mi Susy, mi Susy, mi Susy, mi Susy.
----------------------------------------------------
*-*-*-*
 Verso
*-*-*-*
*1
Mi Susy, no para de beber,
                      *2
Mi Susy, no para de beber.
       *1               *3
Apenas se despierta, se toma lo que encuentra.
     *4
Mi Susy, no para de beber,
     *4
Mi Susy no para de beber,
      *4
¡Mi Susy no para de beber!

*-*-*-*-*-*-FINAL-*-*-*-*-*-*-*-*

Ps ojala les haya servido, echenle ganas, es una rola sencilla,
es un 95% correcta, ok.

*********R+O 4 Ever***********

            
            
Suggest correction
Creating personal tab
Creating personal tab
You can edit any tab online and save it as your Personal.

You can edit, replace or remove any tab part or add personal notes – all changes will be seen only by you.

Personal tabs can be accessed anytime from any device, even offline.
Learn more »
Give kudos to tab author, rate the tab!
1 2 3 4 5
comments
print report bad tab
guest
Wanna post a correction for this tab? Suggest correction