Oops, an error
Loading. Please wait.

Polvo En Los Ojos tab

58 views 1 this week
no commentswrite comment
1 2 3 4 5
3 more votes to show rating
add to favorites
×
Save as Personal and add changes to this tab that will be seen only by you. Learn more ›
×
You can save this tab as Personal to edit and correct it or add notes. All changes will be seen only by you. Learn more »
launch autoscroll
font size
0
reset
how to read this tab
guitar tuner
edit
Autoscroll
slow
fast
+/-
esc
set tempo
stop
INTRO: (Guitarra octavada)
      
  D        A    Bm     A   G               A     D
e--------------10\12/10---------------15-14-12-----
B--10\12/10---------------------12-15----------15~~
G-------------------------1214--------------------
D--------------------------------------------------
A--------------------------------------------------
E--------------------------------------------------


(1)
D     F#7-Bm                  G-A
Fue el amor, o polvo en los ojos
D   F#7           Bm        G-A
Esa noche yo no hacia nada
D        F#7              Bm            G-A
Volaba hablando con las nubes blancas
D         F#7             Bm           G-A
En los linderos de una luna mas

D    F#7 Bm     G-A
Numere, las estrellas nuevas
D   F#7-Bm      G-A
No note, que una se apagaba

(2)
D   F#7                  Bm              G         A    D
Dime, que te amo la noche, que no dudaste ni dos minutos
      F#7             Bm          G    A    D
Que no estaba el agua helada, que reíste para ti
        F#7     Bm                  G     A       D
Que una voz siguió tu sombra, que soñaste cuando niña
      F#7        Bm            G      A        D
Que nadabas y flotabas, que llegaste a salvo al fin


PUENTE:
       D       A  Bm     A         G              A   D
e-------------------10(12)10------------10-10---12--10~--
B----- 7--10(12)10-------------7-8~--10------------------
G-7--9---------------------------------------------------
D--------------------------------------------------------
A--------------------------------------------------------
E--------------------------------------------------------


(1)
Fue vivir, a mil por hora,
O esa forma de cruzar el fuego
Dejaste cartas y nudos de nostalgia
Pienso en tu alma corriendo calle abajo

Numere, las estrellas nuevas
No note, que una se apagaba

(2)
D   F#7                  Bm              G         A    D
Dime, que te amo la noche, que no dudaste ni dos minutos
      F#7             Bm          G    A    D
Que no estaba el agua helada, que reíste para ti
        F#7     Bm                  G     A       D
Que una voz siguió tu sombra, que soñaste cuando niña
      F#7        Bm            G      A        D
Que nadabas y flotabas, que llegaste a salvo al fin


A    D*    A          D*     A    D     A        Bm-A
Vida mia,  que dia es hoy, ando solo, mudo y triste
      G     A D
Recordando tu luz


A    D*   A          D*      A    D     A        Bm-A
Vida mia,  que dia es hoy, ando solo, mudo y triste
      G     A D
Recordando tu luz


*:
   e ---------------7-9-10~~
   B----------7-8-9---------
   G------7-9---------------
   D------------------------
   A------------------------
   E------------------------


OUT:  D  A   Bm  A   G  A  D(estos acordes se van repitiendo)


e--------------------------------------------------------10-9-7-
B---------7~---0--7(8)7------5-7---------------\10---------10~~
G---7--9---------------------7------7----6-7--------------------
D------------------------------------------------9--------------
A---------------------------------------------------------------
E---------------------------------------------------------------


e--------------------------------------14~~~--14--14(16)14--12-12\14------
B-------------------------14-15-16-------------------------------------15-
G-----------------14-16---------------------------------------------------
D-----14-16-17------------------------------------------------------------
A-17----------------------------------------------------------------------
E-------------------------------------------------------------------------

            
            
Suggest correction
Creating personal tab
Creating personal tab
You can edit any tab online and save it as your Personal.

You can edit, replace or remove any tab part or add personal notes – all changes will be seen only by you.

Personal tabs can be accessed anytime from any device, even offline.
Learn more »
Give kudos to tab author, rate the tab!
1 2 3 4 5
comments
print report bad tab
guest
Wanna post a correction for this tab? Suggest correction