Oops, an error
Loading. Please wait.

Two Arrows tab

988 views 24 this week
no commentswrite comment
1 2 3 4 5
x 4
add to favorites
×
Save as Personal and add changes to this tab that will be seen only by you. Learn more ›
×
You can save this tab as Personal to edit and correct it or add notes. All changes will be seen only by you. Learn more »
launch autoscroll
font size
0
reset
how to read this tab
guitar tuner
edit
Autoscroll
slow
fast
+/-
esc
set tempo
stop
Tuning: Standard
Difficulty: Noviceish

[Intro]
e|--3-2-0----|
B|--------3--|
G|-----------|
D|-----------|
A|-----------|
E|-----------|

    D
e|------2---3-----5-----------3-----2----|
B|--------3---3---------3---3---3--------|
G|----2---------2---------2-------2------| (x3)
D|--0------------------------------------|
A|---------------------------------------|
E|---------------------------------------|

    D
e|------2---3-2-0----------0-----3-2-0---|
B|--------3--------3---------3---------3-|
G|----2------------------2---------------|
D|--0------------------0-----------------|
A|---------------------------------------|
E|---------------------------------------|

[Verse 1] 
(0:36)
(This is the main droning D line.)
    D
e|------2-------------|
B|--------3---3---3---|
G|----2-----2---2-----| 
D|--0-----------------|
A|--------------------|
E|--------------------|

(These are different variations played at different parts that vary throughout.
There are a few more but they only have small changes that aren't hard to figure out)
    D
e|------2---3-2-0-----|
B|--------3--------3--|
G|----2---------------|
D|--0-----------------|
A|--------------------|
E|--------------------|
    D
e|------2---3-----5-----------3-----2----|
B|--------3---3---------3---3---3--------|
G|----2---------2---------2-------2------| 
D|--0------------------------------------|
A|---------------------------------------|
E|---------------------------------------|

[Chorus 1] 
(1:21)
(This is the main line in the chorus.)
    G
e|---------0----------|
B|-------3---2---2-0--|
G|-----0--------------|
D|--------------------|
A|--------------------|
E|--3-----------------|

(This bit is played around half way through) 
(1:30)
    G
e|------3---2-0-------|
B|----3---3-----3-----|
G|--4-------------4---|
D|--------------------|
A|--------------------|
E|--------------------|

(Played at the end of the chorus) 
(1:38)
    G               D
e|-------0----------2--2-2-3-2-0----|
B|---------3-2-0-2--3--3-3-------3--|
G|-----0------------2--2-2----------|
D|------------------0--0-0----------|
A|----------------------------------|
E|--3-------------------------------|

[Verse 2] 
(1:44)

(Main line)
    D
e|------2-------------|
B|--------3---3---3---|
G|----2-----2---2-----| 
D|--0-----------------|
A|--------------------|
E|--------------------|

(Variations)
    D
e|------2---3-2-0-----|
B|--------3--------3--|
G|----2---------------|
D|--0-----------------|
A|--------------------|
E|--------------------|

    D
e|------2---3-----5-----------3-----2----|
B|--------3---3---------3---3---3--------|
G|----2---------2---------2-------2------| 
D|--0------------------------------------|
A|---------------------------------------|
E|---------------------------------------|

[Chorus 2] 
(2:28)
(Main Line)
    G
e|---------0----------|
B|-------3---2---2-0--|
G|-----0--------------|
D|--------------------|
A|--------------------|
E|--3-----------------|

(Midway line) 
(2:38)
    G
e|------3---2-0-------|
B|----3---3-----3-----|
G|--4-------------4---|
D|--------------------|
A|--------------------|
E|--------------------|

(End Line) 
(2:46)

    G               D
e|------------------2--2-2--|
B|-------3---2-0-2--3--3-3--|
G|-----0---0--------2--2-2--|
D|------------------0--0-0--|
A|--------------------------|
E|--3-----------------------|

[Interlude] 
(2:52)
    Bm
e|------7-------7----|
B|--0-------0--------|
G|----7-------7------|
D|-------------------|
A|-------------------|
E|-------------------|

    Cmaj7             Aadd9           D6              B
e|------7-------6-5-------7-------7-------7-------7-------7-------7---|
B|----5-5-----5-5-------5-5-----5-5-----7-7-----7-7-------7-------7---|
G|--5-------5---------6-------6-------7-------7---------8-------8-----|
D|----------------------------------------------------9-------9-------|
A|--------------------------------------------------------------------|
E|--------------------------------------------------------------------|
    Cmaj7             Aadd9
e|------7-------6-5-------7-------7--------7-------7---|
B|----5-5-----5-5-------5-5-----5-5------5-5-----5-5---|
G|--5-------5---------6-------6--------6-------6-------|
D|-----------------------------------------------------|
A|-----------------------------------------------------|
E|-----------------------------------------------------|

[Verse 3] 
(3:14) 
(Played more like the intro than the previous verses.)

    D
e|------2---3-----5-----------3-----2----|
B|--------3---3---------3---3---3--------|
G|----2---------2---------2-------2------|
D|--0------------------------------------|
A|---------------------------------------|
E|---------------------------------------|

   D
e|------2---3-----5-----------3-2--------|
B|--------3---3---------3---3-----3-0----|
G|----2---------2---------2--------------|
D|--0------------------------------------|
A|---------------------------------------|
E|---------------------------------------|

    D
e|------2---3-----5-----------3-----2----|
B|--------3---3---------3---3---3--------|
G|----2---------2---------2-------2------|
D|--0------------------------------------|
A|---------------------------------------|
E|---------------------------------------|

    D
e|------2---3-2-0----------0-----3-2-0---|
B|--------3--------3---------3---------3-|
G|----2------------------2---------------|
D|--0------------------0-----------------|
A|---------------------------------------|
E|---------------------------------------|

[Outro]
    Bm
e|------7-------7----|
B|--0-------0--------|
G|----7-------7------|
D|-------------------|
A|-------------------|
E|-------------------|

    Cmaj7             Aadd9           D6              B
e|------7-------6-5-------7-------7-------7-------7-------7-------7---|
B|----5-5-----5-5-------5-5-----5-5-----7-7-----7-7-------7-------7---|
G|--5-------5---------6-------6-------7-------7---------8-------8-----| (Repeat ad infinitum)
D|----------------------------------------------------9-------9-------|
A|--------------------------------------------------------------------|
E|--------------------------------------------------------------------|

(Lead guitar over the outro) 
(4:22)
e|-------------|
B|-------------|
G|-------------|
D|-------1--4--|
A|--2~---------|
E|-------------|
     
e|-----------------------------=-----|
B|-----------------------------------|
G|--4~--3-2~---4---------------------| (Repeat ad infinitum)
D|----------------4~--0-----1--4-----|
A|-----------------------2~----------|
E|-----------------------------------|


************************************

| ~  Vibrato

************************************

            
            
Suggest correction
Creating personal tab
Creating personal tab
You can edit any tab online and save it as your Personal.

You can edit, replace or remove any tab part or add personal notes – all changes will be seen only by you.

Personal tabs can be accessed anytime from any device, even offline.
Learn more »
comments
print report bad tab
guest
You may want to rate the tab now too:
select rating
Wanna post a correction for this tab? Suggest correction