Oops, an error
Loading. Please wait.

Free tab

version 1
version 1

Whole song

Interactive

257 views 1 this week
no commentswrite comment
1 2 3 4 5
3 more votes to show rating
add to favorites
×
Save as Personal and add changes to this tab that will be seen only by you. Learn more ›
×
You can save this tab as Personal to edit and correct it or add notes. All changes will be seen only by you. Learn more »
launch autoscroll
font size
0
reset
how to read this tab
guitar tuner
edit
Autoscroll
slow
fast
+/-
esc
set tempo
stop
-------------------------------------------------------------------------------
                  FREE (The Saga Begins) - REBELLION
-------------------------------------------------------------------------------
REBELLION
Free (The Saga Begins)
From: Miklagard (2007)
Tabbed by:malpka
sfaurot@hotmail.com

Tuning: Standard


[FIG: 1]
e|--------------------|--------------------|
B|--------------------|--------------------|
G|---------4/5~------4/5~------4/5~--------|
D|--------------------|--------------------|
A|---------2/3~------2/3~------2/3~---2~---|
E|--0--0----------0---|-----0--------------|

e|--------------------|--------------------|
B|--------------------|--------------------|
G|---------4/5~------4/5~------4/5~--------|
D|--------------------|----------------4-5-|
A|---------2/3~------2/3~------2/3~----2-3-|
E|--0--0----------0---|-----0--------0-----|

e|--------------------|--------------------|
B|--------------------|--------------------|
G|---------4/5~------4/5~------4/5~--------|
D|--------------------|--------------------|
A|---------2/3~------2/3~------2/3~---2~---|
E|--0--0----------0---|-----0--------------|

e|--------------------|--------------------|
B|--------------------|--------------------|
G|---------4/5~------4/5~------------------|
D|--------------------|-------5-5---7-7--2-|
A|---------2/3~------2/3~-----5-5---7-7--2-|
E|--0--0----------0---|----0--3-3---5-5--0-|


VERSE:
[FIG: 2]
    As the dragon              cuts the waves
e|----------------------------|----------------------------|
B|----------------------------|----------------------------|
G|----------------------------|----------------------------|
D|----------------------------|----------------------------|
A|-2-2-2--2-2-2--2-2-2--2-2-2-|-2-2-2--2-2-2--2-2-2--2-2-2-|
E|-0-0-0--0-0-0--0-0-0--0-0-0-|-0-0-0--0-0-0--0-0-0--0-0-0-|

    Strong winds   take us east
e|----------------------------|----------------------------|
B|----------------------------|----------------------------|
G|----------------------------|----------------------------|
D|----------------------------|----------------------------|
A|-2-2-2--2-2-2--2-2-2--2-2-2-|-2-2-2--2-2-2--2-2-2--2-2-2-|
E|-0-0-0--0-0-0--0-0-0--0-0-0-|-0-0-0--0-0-0--0-0-0--0-0-0-|

                          Like the wings of a beast
e|----------------------------|----------------------------|
B|----------------------------|----------------------------|
G|----------------------------|----------------------------|
D|-5-------------5------7-----|-5-------------5------7-----|
A|-5-------------5------7-----|-5-------------5------7-----|
E|-3------0------3------5-----|-3------0------3------5-----|


VERSE:
[FIG: 2]
Salt on my lips again
I put my face in the wind
Let the saga begin...let the saga begin


PRE-CHORUS:
[FIG: 3]
                 Heading where brave have travelled
e|--7----------0----------|-(0)--------------------|
B|--8----------0----------|-(0)--------------------|
G|--9----------9----------|-(9)--------------------|
D|--9----------9----------|-(9)--------------------|
A|--7----------7----------|-(7)--------------------|
E|--0----------0----------|-(0)--------------------|

                 What eyes have never seen
e|--7----------0----------|-(0)--------------------|
B|--8----------0----------|-(0)--------------------|
G|--9----------9----------|-(9)--------------------|
D|--9----------9----------|-(9)--------------------|
A|--7----------7----------|-(7)--------------------|
E|--0----------0----------|-(0)--------------------|

  Miklagard we're on our way
e|--7----------0----------|-(0)--------------------|
B|--8----------0----------|-(0)--------------------|
G|--9----------9----------|-(9)--------------------|
D|--9----------9----------|-(9)--------------------|
A|--7----------7----------|-(7)--------------------|
E|--0----------0----------|-(0)--------------------|

 Where few have ever been
e|------------------------|------------------------|
B|------------------------|------------------------|
G|--7----------7----------|--5---------------------|
D|--7----------7----------|--5---------------------|
A|--5------x-x-5-------x--|--3---------------------|
E|--5------x-x-5-------x--|--3---------------------|


                  Danger, toil and trouble
e|--7----------0----------|-(0)-------7------------|
B|--8----------0----------|-(0)----------7---------|
G|--9----------9----------|-(9)--------------9-----|
D|--9----------9----------|-(9)--------------------|
A|--7----------7----------|-(7)--------------------|
E|--0----------0----------|-(0)--------------------|

                 Death may lie ahead
e|--7----------0----------|-(0)-------7------------|
B|--8----------0----------|-(0)----------7---------|
G|--9----------9----------|-(9)--------------9-----|
D|--9----------9----------|-(9)--------------------|
A|--7----------7----------|-(7)--------------------|
E|--0----------0----------|-(0)--------------------|

  But I'd rather die in glory
e|--7----------0----------|-(0)-------7------------|
B|--8----------0----------|-(0)----------7---------|
G|--9----------9----------|-(9)--------------9-----|
D|--9----------9----------|-(9)--------------------|
A|--7----------7----------|-(7)--------------------|
E|--0----------0----------|-(0)--------------------|

   Than fade away in bed
e|------------------------|------------------------|
B|------------------------|------------------------|
G|--7----------7----------|--5-------5-5-5-5-5-5-5-|
D|--7----------7----------|--5-------5-5-5-5-5-5-5-|
A|--5------x-x-5-------x--|--3-------3-3-3-3-3-3-3-|
E|--5------x-x-5-------x--|--3-------3-3-3-3-3-3-3-|


CHORUS:
[FIG: 4]
   Free
e|------------------------|------------------------|
B|--5~-----------------5--|--5~-----------------5--|
G|--4~-----------------4--|--4~-----------------4--|
D|--2~-----------------2--|--2~-----------------2--|
A|--------2---2--2--2--2--|--------2---2--2--2--2--|
E|--------0---0--0--0-----|--------0---0--0--0-----|

  So free
e|------------------------|------------------------|
B|--5~-----------------5--|--5~-----------------5--|
G|--4~-----------------4--|--4~-----------------4--|
D|--2~-----------------2--|--2~-----------------2--|
A|--------2---2--2--2--2--|--------2---2--2--2--2--|
E|--------0---0--0--0-----|--------0---0--0--0-----|

   The waves of the sea        The taste of the wind
e|----------------------------|----------------------------|
B|----------------------------|----------------------------|
G|-5------5------5------5-----|-5------5------5------4-----|
D|-5------5------5------5-----|-5------5------5------4-----|
A|-3-3-3--3-3-3--3-3-3--3-3-3-|-3-3-3--3-3-3--3-3-3--2-2-0-|
E|----------------------------|----------------------------|

    Urging us on and          The saga begins
e|----------------------------|----------------------------|
B|----------------------------|-3------3------3------3-----|
G|-2------2------2------2-----|-2------2------2------2-----|
D|-2------2------2------2-----|-0------0------0------0-----|
A|-0-0-0--0-0-0--0-0-0--0-0-0-|-0------0------0------0-----|
E|----------------------------|----------------------------|


CHORUS:
[FIG: 4]
Free, so free
In the storm you will see
Holding on with a grin
Odin with us let the saga begin


[FIG: 1]


VERSE:
[FIG: 2]
From Dorestadt in Franconia
The best swords that are made
In gold they'll be weighed

Amber from Haithabu
The gold of our shore
We got plenty in store


PRE-CHORUS:
[FIG: 3]
We'll sell on Eastern markets
And silken clothes we will buy
Spices, glass and jewellery
A pleasure to the eye

There is a fortune waiting
For those who choose this way
A saga to be written
To be told on future days


CHORUS
[FIG: 4]


SOLO RYTHYM:

e|---------------------------------|---------------------------------|
B|---------------------------------|---------------------------------|
G|---------------------------------|---------------------------------|
D|---------------------------5-5-5-|---------------------------5-5-5-|
A|-2-2-2-2-2-2-2-2-2-2-2-2-2-3-3-3-|-5-5-5-5-5-5-5-5-5-5-5-5-5-3-3-3-|
E|-0-0-0-0-0-0-0-0-0-0-0-0-0-------|-3-3-3-3-3-3-3-3-3-3-3-3-3-------|

e|---------------------------------|---------------------------------|
B|---------------------------------|---------------------------------|
G|---------------------------------|---------------------------------|
D|-2-2-2-2-2-2-2-2-2-2-2-2-2-2-4-4-|-5-5-5-5-5-5-5-5-----------------|
A|-0-0-0-0-0-0-0-0-0-0-0-0-0-0-2-2-|-3-3-3-3-3-3-3-3-5-5-5-5-3-3-3-3-|
E|---------------------------------|-----------------3-3-3-3-1-1-1-1-|


CHORUS
[FIG: 4]


[FIG: 1]
Let the saga begin...



| /  slide up
| \  slide down
| h  hammer-on
| p  pull-off
| ~  vibrato
| +  harmonic
| x  Mute note
===============================================================================


            
            
Suggest correction
Creating personal tab
Creating personal tab
You can edit any tab online and save it as your Personal.

You can edit, replace or remove any tab part or add personal notes – all changes will be seen only by you.

Personal tabs can be accessed anytime from any device, even offline.
Learn more »
Give kudos to tab author, rate the tab!
1 2 3 4 5
comments
print report bad tab
guest
Wanna post a correction for this tab? Suggest correction