Oops, an error
Loading. Please wait.

Green To Black bass

version 1
version 1

Whole song

13,468 views 18 this week
3 commentsread comments
1 2 3 4 5
x 6
add to favorites
×
Save as Personal and add changes to this tab that will be seen only by you. Learn more ›
×
You can save this tab as Personal to edit and correct it or add notes. All changes will be seen only by you. Learn more »
launch autoscroll
font size
0
reset
guitar tuner
edit
Autoscroll
slow
fast
+/-
esc
set tempo
stop
Author
-------------------------------------------------------------------------------
			     GREEN TO BLACK - Rebelution
-------------------------------------------------------------------------------

Tabbed By : Wesley Lai
e-mail: stinger12345@aol.com

Tuning: Standard

After watching a few videos, I've updated the tab.  It's the same notes, just played in 
a different position.

Intro

G|---------------------------------------------------------------------------|
D|---------------------------------------------------------------------------|
A|------------666-5----------------------------------------------------------|
E|-3--3--3--3----------------------------------------------------------------|

Main line
 Repeat over and over and over
G|---------------------------------------------------------------------------|
D|----585-5------------------------------------------------------------------|
A|-------8-65----------------------------------------------------------------|
E|-3---------86-5------------------------------------------------------------|

            
            
Suggest correction
Creating personal tab
Creating personal tab
You can edit any tab online and save it as your Personal.

You can edit, replace or remove any tab part or add personal notes – all changes will be seen only by you.

Personal tabs can be accessed anytime from any device, even offline.
Learn more »
comments
print report bad tab
3 comments total.
0 reply
n0r3mac 32 Jun 19, 2011 11:54 PM

I think the very last note of the main line goes
E--6-5--3---

+1 reply
stinger12345 378 Jun 30, 2011 05:36 PM

You're right, it does. But that last note (G) that you have there is actually the first note of the riff. So if you repeated the riff, it would do exactly what you are describing. Thanks!

0 reply
jdetres01 368 Sep 29, 2011 11:00 PM

ur spot on stinger, keep it up.

guest
You may want to rate the tab now too:
select rating
Wanna post a correction for this tab? Suggest correction