Oops, an error
Loading. Please wait.

No More Hope tab

16 views 1 this week
no commentswrite comment
1 2 3 4 5
3 more votes to show rating
add to favorites
×
Save as Personal and add changes to this tab that will be seen only by you. Learn more ›
×
You can save this tab as Personal to edit and correct it or add notes. All changes will be seen only by you. Learn more »
launch autoscroll
font size
0
reset
how to read this tab
guitar tuner
edit
Autoscroll
slow
fast
+/-
esc
set tempo
stop
About this tab version
This tab was made to help the members of Reckless Abandonment learn the song better. Was this info helpful? Yes No
[Intro]
Guitar 1 Clean
e|1-0------------------------1---1-0-----------------------------------------|
B|----3---------3-1-1h3--------3-----3---------3-1-1h3-----------------------|
G|------2-----2----------2~~~----------2-----2---------2-3-2~~~--------------| x2
D|--------0-0----------------------------0-0---------------------------------|
A|---------------------------------------------------------------------------|
D|---------------------------------------------------------------------------|

Guitar 2 Clean
e|---------------------------------------------------------------------------|
B|---------------------------------------------------------------------------|
G|---------------------------------------------------------------------------| x2
D|-----------(5)-----------------------------(5)----(7)----------------------|
A|----(12)------(5)----------------(12)---------(7)--------------------------|
D|(12)-------------------------(12)------------------------------------------|

[Verse]
Guitar 1 Clean
e|---------------------------------------------------------------------------|
B|---------------------------------------------------------------------------|
G|---------------------------------------------------------------------------| x4
D|7-7777-7-7777-8-8888-7-7777------------------------------------------------|
A|5-5555-5-5555-8-8888-7-7777------------------------------------------------|
D|0-0000-0-0000-8-8888-7-7777------------------------------------------------|

Guitar 2 Dist. (comes in after x2, light PM)
e|---------------------------------------------------------------------------|
B|---------------------------------------------------------------------------|
G|---------------------------------------------------------------------------| x1
D|0--------------8-----7------------------8-----7----------------------------|
A|0--------------8-----7------5-----------8-----7----------------------------|
D|0--------------8-----7------0-----------8-----7----------------------------|
  .              .     .      .           .     .

Bass
G|---------------------------------------------------------------------------|
D|---------------------------------------------------------------------------| x2
A|---------------1~~~~~0~~~~~~5~~~~~~~~~~~-----------------------------------|
D|0~~~~~~~~~~~~---------------------------8~~~~~7~~~~------------------------|

[Chorus]
Guitar 1 Clean/Dist.
e|---------------------------------------------------------------------------|
B|---------------------------------------------------------------------------|
G|---------------------------------------------------------------------------| x2
D|0-0000-0-0000-3-3333-------0-0000-0-0000-3-3333----------------------------|
A|0-0000-0-0000-3-3333-2-0-2-0-0000-0-0000-3-3333-2-0-2----------------------|
D|0-0000-0-0000-3-3333-2-0-2-0-0000-0-0000-3-3333-2-0-2----------------------|
                       . . .                      . . .
                       |dist. on              dist. off|
Guitar 2 Dist.
e|---------------------------------------------------------------------------|
B|---------------------------------------------------------------------------|
G|---------------------------------------------------------------------------| x2
D|0-------------3------------0-0000-0-0000-3-3333----------------------------|
A|0-------------3------2-0-2-0-0000-0-0000-3-3333-2-0-2----------------------|
D|0-------------3------2-0-2-0-0000-0-0000-3-3333-2-0-2----------------------|
  .             .      . . .                      . . .

Bass
G|---------------------------------------------------------------------------|
D|---------------------------------------------------------------------------| x2
A|---------------------------------------------------------------------------|
D|0-0-0-0-0-0-3-3-3-2-0-2-0-0-0-0-0-0-3-3-3-2-0-2----------------------------|

[Break 1] All hold final note on the 4th time through
Guitar 1 Clean
e|---------------------------------------------------------------------------|
B|---------------------------------------------------------------------------|
G|---------------------------------------------------------------------------| x4
D|7-7777-7-7777-9-9999-9-9999-3-3333-3-3333-5-5555-2-2222--------------------|
A|5-5555-5-5555-7-7777-7-7777-3-3333-3-3333-5-5555-2-2222--------------------|
D|0-0000-0-0000-0-0000-0-0000-3-3333-3-3333-5-5555-2-2222--------------------|

Guitar 2 Dist. (release PM at 10's on the 4th time through)
e|---------------------------------------------------------------------------|
B|---------------------------------------------------------------------------|
G|---------------------------------------------------------------------------| x4
D|---------------------------------------------------------------------------|
A|5-5-5-5-5-5-7-7-7-7-7-7-8-8-8-8-8-8-10-10-10-8--8--8-----------------------|
D|0-0-0-0-0-0-0-0-0-0-0-0-0-0-0-0-0-0-0--0--0--0--0--0-----------------------|
  . . . . . . . . . . . . . . . . . . .  .  .  .  .  .

Bass
G|---------------------------------------------------------------------------|
D|---------------------------------------------------------------------------| x4
A|---------------------------------------------------------------------------|
D|0-0-0-0-0-0-2-2-2-2-2-2-3-3-3-3-3-3-5-5-5-2-2-2----------------------------|


[Breakdown 1] Faster than Break 1. X's 1st time only. Hold last note 2nd time through.
Guitar 1&2 Dist.
e|---------------------------------------------------------------------------|
B|---------------------------------------------------------------------------|
G|---------------------------------------------------------------------------|-------
D|X-X-X-0------0------0------0------0------0------0------3-5-2---------------|       |
A|X-X-X-0-0000-0-0000-0-0000-0-0000-0-0000-0-0000-0-0000-3-5-2---------------|       |
D|X-X-X-0-0000-0-0000-0-0000-0-0000-0-0000-0-0000-0-0000-3-5-2---------------|       | 
          ....   ....   ....   ....   ....   ....   ....                             | x2
e|---------------------------------------------------------------------------|       |
B|---------------------------------------------------------------------------|       |
G|---------------------------------------------------------------------------|       |
D|0------0------0------1-1-1-0------0------0------3-5-2----------------------|-------
A|0-0000-0-0000-0-0000-1-1-1-0-0000-0-0000-0-0000-3-5-2----------------------|
D|0-0000-0-0000-0-0000-1-1-1-0-0000-0-0000-0-0000-3-5-2----------------------|
    ....   ....   ....         ....   ....   ....

Bass
G|---------------------------------------------------------------------------|
D|---------------------------------------------------------------------------| x2
A|---------------------------------------------------------------------------|
D|0~~~0~~~0~~~0~~~0~~~0~~~0~~~3-5-2-0~~~0~~~0~~~1-1-1-0~~~0~~~0~~~3-5-2------|

[Solo]
Guitar 1 Dist. (Rhythm)
e|---------------------------------------------------------------------------|
B|---------------------------------------------------------------------------|
G|---------------------------------------------------------------------------| x6
D|2----2----2------------0----0----0-----------------------------------------|
A|2-00-2-00-2-00---------0-00-0-00-0-00--------------------------------------|
D|2-00-2-00-2-00-2h3p2p0-0-00-0-00-0-00-2h3p2~-------------------------------|
    ..   ..   ..           ..   ..   ..

Bass
G|---------------------------------------------------------------------------|
D|---------------------------------------------------------------------------| x6
A|---------------------------------------------------------------------------|
D|2-0-2-0-2-0-2-0-0-0-0-0-0-0-3-2--------------------------------------------|


Guitar 2 Dist. (Lead)
e|---------------------------------------------------------------------------|
B|---------------------------------------------------------------------------|
G|6b7r6-7p6s9~~-6b7r6-7p6s9-10-9-7-6b7r6-7p6s9-10-12-10~~12p10h12p10~~12-10-9| x2
D|---------------------------------------------------------------------------|
A|---------------------------------------------------------------------------|
D|---------------------------------------------------------------------------|---
                                                                                 |
e|---------------------------------------------------------------------------|---
B|---------------------------------------------------------------------------|
G|6-7-9-7-9-10-6-7-9-7-9-10-10-9-7-9-7-6-6-6-6-7-9-7-9-10-6-7-9-7-9-10-10-9-7-9-10-12-12-10-9~~~~~~| x1
   \3/   \3/    \3/   \3/                     \3/   \3/    \3/   \3/

[Break 2] 
Bass: same as during solo.

Guitar 1 Dist.
e|---------------------------------------------------------------------------|
B|---------------------------------------------------------------------------|
G|---------------------------------------------------------------------------| x4
D|---------------------------------------------------------------------------|
A|2-0-2-0-2-0-2-0-0-0-0-0-0-0-3-2--------------------------------------------|
D|2-0-2-0-2-0-2-0-0-0-0-0-0-0-3-2--------------------------------------------|
  . . . . . . . . . . . . . . . .

Guitar 2 Dist. cont. from solo
e|---------------------------------------------------------------------------|
B|---------------------------------------------------------------------------|
G|<9>~~~9h10-7~~~7h9-6~~~s7~~~9~~~9-7-9-10-9~~~10-9-10-12-10~~~12~~~10~~~9~~~| x1
D|---------------------------------------------------------------------------|
A|---------------------------------------------------------------------------|
D|---------------------------------------------------------------------------|

[Breakdown 2]
Guitar 1&2 Dist. 1: Join after bass plays x2, 2: join after x3
e|-----------------------------------------------------|---------------------|
B|-----------------------------------------------------|---------------------| x4
G|-----------------------------------------------------|---------------------|
D|-----------------------------------------------------|---------------------|
A|-----------------------------------------------------|---------------------|
D|00-3-00-2-00-5-00-3-00-22--00-3-00-2-00-5-00-3-00-2~-|-22-0~~~~------------|
  ..   ..   ..   ..   ..     ..   ..   ..   ..   ..    |Last time...
Bass
G|---------------------------------------------------------------------------|
D|---------------------------------------------------------------------------| x6
A|---------------------------------------------------------------------------|
D|00-3-00-2-00-5-00-3-00-22--00-3-00-2-00-5-00-3-00-2~-----------------------|

[Outro] 
(Ooh's and Ah's)

Guitar 1 Clean
e|1~~~~~~1-0~~~~~0-----------------------------------------------------------|
B|--3~~~~~3-1~~~~~1-1~~~~~1s3~~~~--------------------------------------------|
G|-----------------2~~~~~2---------------------------------------------------| x4
D|---------------------------------------------------------------------------|
A|---------------------------------------------------------------------------|
D|---------------------------------------------------------------------------|

Guitar 2 Dist. Join after x2
e|---------------------------------------------------------------------------|
B|---------------------------------------------------------------------------|
G|---------------------------------------------------------------------------| x2
D|0~~~~~~10~~~~~7~~~~~7~~~~~-------------------------------------------------|
A|0~~~~~~10~~~~~7~~~~~5~~~~~-------------------------------------------------|
D|0~~~~~~10~~~~~7~~~~~0~~~~~-------------------------------------------------|

Bass
G|---------------------------------------------------------------------------|
D|---------------------------------------------------------------------------| x4
A|-------3~~~~~~0~~~~~~~5~~~~~~~~--------------------------------------------|
D|0~~~~~~--------------------------------------------------------------------|

[Outro Part 2]
Guitar 1&2 Dist.
e|---------------------------------------------------------|---------------------------------------|
B|---------------------------------------------------------|---------------------------------------|
G|---------------------------------------------------------|---------------------------------------| x2
D|0-0-0000000-10-10-10101010101010-7-7-7777777-7-7-7777777-|7-777-777-777-777-777-777-5-7~~~~~~~~--|
A|0-0-0000000-10-10-10101010101010-7-7-7777777-5-5-5555555-|5-555-555-555-555-555-555s3-5~~~~~~~~--|
D|0-0-0000000-10-10-10101010101010-7-7-7777777-0-0-0000000-|0-000-000-000-000-000-00----0~~~~~~~~--|
                                                           |2nd time at 057
Bass
G|---------------------------------------------------------------------------|
D|---------------------------------------------------------------------------| x2
A|------------3-3-3333333-0-0-0000000----------------------------------------|
D|0-0-0000000-------------------------0-0-0000000----------------------------|

Song Order
----------
Intro
Verse
Chorus
Verse
Chorus
Break 1
Breakdown 1
Solo
Break 2
Breakdown 2
Outro
----------
 
************************************

| x   Dead note
|(n)  Natural harmonics
| h   Hammer-on
| p   Pull-off
| r   Release
| b   Bend
| br  Bend release 
| ~   Let note ring
| PM  Palm mute
| \3/ Triplet

************************************ 

            
            
Suggest correction
Creating personal tab
Creating personal tab
You can edit any tab online and save it as your Personal.

You can edit, replace or remove any tab part or add personal notes – all changes will be seen only by you.

Personal tabs can be accessed anytime from any device, even offline.
Learn more »
Give kudos to tab author, rate the tab!
1 2 3 4 5
comments
print report bad tab
guest
You may want to rate the tab now too:
select rating
Wanna post a correction for this tab? Suggest correction