Oops, an error
Loading. Please wait.

Gave It All Away bass

by RED
310 views 3 this week
no commentswrite comment
1 2 3 4 5
2 more votes to show rating
add to favorites
×
Save as Personal and add changes to this tab that will be seen only by you. Learn more ›
×
You can save this tab as Personal to edit and correct it or add notes. All changes will be seen only by you. Learn more »
launch autoscroll
font size
0
reset
guitar tuner
edit
Autoscroll
slow
fast
+/-
esc
set tempo
stop
Gave It All Away by RED Bass Tab

Tabbed by TheBassMeister


SONG: Gave It All Away
ARTIST: RED
ALBUM: End of Silence
TUNING: Drop C (For this song you can just tune your E string down or your B string up to C)


The rhythms for the intro and bridge are a little tricky to tab, so play with the song and see
what you think.  Feedback is greatly appreciated, especially on that crazy bridge. :P


INTRO - Guitar plays riff once, then the bass kicks in.

G|----------------------------------|
D|----------------------------------|
A|----------------------------------|
E|----------------------------------|
C|-0-7-5-0-8-7-5-7-0-7-5-0-8-7-3-5-0|

G|-------------------------------|
D|-------------------------------|
A|-------------------------------|
E|-------------------------------|
C|-0-7-5-0-8-7-5-7-0-7-5-0-3--1--|


VERSE 1 - Keyboard first, then come in with the guitars when they play their half
          measure riff.  It's when Mike sings "...and now you've gone astray."

G|------------------------|
D|------------------------|
A|------------------------|
E|------------------------|
C|-3/1-0---8---5---3--7--8|


CHORUS 1

G|------------------------------------------------------------------------|
D|------------------------------------------------------------------------|
A|------------------------------------------------------------------------|
E|------------------------------------------------------------------------|
C|-0-0-0-0-0-0-0-0-10-10-10-10-10-10-10-10-5-5-5-5-7-7-7-7-8-8-8-8-8-8-8-8|

G|------------------------------------------------|
D|------------------------------------------------|
A|------------------------------------------------|
E|------------------------------------------------|
C|-0-0-0-0-0-0-0-0-3-3-3-3-3-3-3-3-5-5-5-5-7-7-7-7|


POST CHORUS 1

G|------------------|
D|------------------|
A|------------------|
E|------------------|
C|-0-7-5-0-8-7-5-7-0| x3

G|---------------|
D|---------------|
A|---------------|
E|---------------|
C|-0-7-5-0-3--1--|


VERSE 2 - Same deal as before.  This time the guitars come in on "...you just threw away."

G|------------------------|
D|------------------------|
A|------------------------|
E|------------------------|
C|-3/1-0---8---5---3--7--8|


CHORUS 2

G|------------------------------------------------------------------------|
D|------------------------------------------------------------------------|
A|------------------------------------------------------------------------|
E|------------------------------------------------------------------------|
C|-0-0-0-0-0-0-0-0-10-10-10-10-10-10-10-10-5-5-5-5-7-7-7-7-8-8-8-8-8-8-8-8|

G|----------------------------------------------------------------|
D|----------------------------------------------------------------|
A|----------------------------------------------------------------|
E|----------------------------------------------------------------|
C|-0-0-0-0-0-0-0-0-3-3-3-3-3-3-3-3-5-5-5-5-5-5-5-5-7-7-7-7-7-7-7-7|


BRIDGE

G|-----------------------------------------------------------|
D|-----------------------------------------------------------|
A|-----------------------------------------------------------|
E|-----------------------------------------------------------|
C|-1--1-1--------0--1-1-1--------0--1-1-1-------7-5-7-8--5--7--|

Repeat, and let the last note ring until the acoustic part begins.


ACOUSTIC BRIDGE - No bass


CHORUS 3

G|----------------------------------------------------------------|
D|----------------------------------------------------------------|
A|----------------------------------------------------------------|
E|----------------------------------------------------------------|
C|-8-8-8-8-8-8-8-8-0-0-0-0-0-0-0-0-3-3-3-3-3-3-3-3-5-5-5-5-7-7-7-7| x3


OUTRO - Basicially the intro followed by the bridge, but with minor differences.

G|----------------------------------|
D|----------------------------------|
A|----------------------------------|
E|----------------------------------|
C|-0-7-5-0-8-7-5-7-0-7-5-0-8-7-3-5-0|

G|-------------------------------|
D|-------------------------------|
A|-------------------------------|
E|-------------------------------|
C|-0-7-5-0-8-7-5-7-0-7-5-0-5--3--|

G|------------------------------------------------------------|
D|------------------------------------------------------------|
A|------------------------------------------------------------|
E|------------------------------------------------------------|
C|-1--1-1--------0-1-1-1--------0-1-1-1-------7-5-7-8--5--3--1|


END

            
            
Suggest correction
Creating personal tab
Creating personal tab
You can edit any tab online and save it as your Personal.

You can edit, replace or remove any tab part or add personal notes – all changes will be seen only by you.

Personal tabs can be accessed anytime from any device, even offline.
Learn more »
Give kudos to tab author, rate the tab!
1 2 3 4 5
comments
print report bad tab
guest
You may want to rate the tab now too:
select rating
Wanna post a correction for this tab? Suggest correction