Oops, an error
Loading. Please wait.

Love Will Leave A Mark tab

version 2
version 2

Whole song

by RED
148 views 1 this week
no commentswrite comment
1 2 3 4 5
3 more votes to show rating
add to favorites
×
Save as Personal and add changes to this tab that will be seen only by you. Learn more ›
×
You can save this tab as Personal to edit and correct it or add notes. All changes will be seen only by you. Learn more »
launch autoscroll
font size
0
reset
how to read this tab
guitar tuner
edit
Autoscroll
slow
fast
+/-
esc
set tempo
stop
[Intro]

C |---------------------------------------------------------|
G |---------------------------------------------------------|
D#|---------------------------------------------------------|
A#|---------------------------------------------------------|
F |---------------------------------------------------------|
A#|-16-0-0-15-0-0-11-0-0-15-0-0-13-12-0-0---0---0---0---0---|

C |----------------------------------------------------------|
G |----------------------------------------------------------|
D#|----------------------------------------------------------|
A#|----------------------------------------------------------|
F |----------------------------------------------------------|
A#|-16-0-0-15-0-0-11-0-0-15-0-0-13-12-0-0--0--12-12-13-12-12-|


[Verse]

    PM--------------------------------------------------|
C |---------------------------------------------------------|
G |---------------------------------------------------------|
D#|---------------------------------------------------------|
A#|---------------------------------------------------------|
F |---------------------------------------------------------|
A#|-16-0-0-15-0-0-11-0-0-15-0-0-13-12-0-0---0---0---0---0---|
  

    PM-----------------------------------------------------|
C |----------------------------------------------------------|
G |----------------------------------------------------------|
D#|----------------------------------------------------------|
A#|----------------------------------------------------------|
F |----------------------------------------------------------|
A#|-16-0-0-15-0-0-11-0-0-15-0-0-13-12-0-0--0--12-12-13-12-12-|
 

C |---------------------------------------------------------|
G |---------------------------------------------------------|
D#|---------------------------------------------------------|
A#|---------------------------------------------------------|
F |---------------------------------------------------------|
A#|-16-0-0-15-0-0-11-0-0-15-0-0-13-12-0-0---0---0---0---0---|

C |----------------------------------------------------------|
G |----------------------------------------------------------|
D#|----------------------------------------------------------|
A#|----------------------------------------------------------|
F |----------------------------------------------------------|
A#|-16-0-0-15-0-0-11-0-0-15-0-0-13-12-0-0--0--12-12-13-12-12-|


[Pre-Chorus]

C |---------------------------------------------------------------------------------------|
G |---------------------------------------------------------------------------------------|
D#|---------------------------------------------------------------------------------------|
A#|---------------------------------------------------------------------------------------|
F |-----------15-------------------7---------------------15-------------------7-----------|
A#|-0---0---0-15--------0---0-8-10-----10---7--0---0---0-15--------0---0-8-10-----10---7--|


[Chorus]

C |-----------------------------------------------------------------------------------|
G |-----------------------------------------------------------------------------------|
D#|-----------------------------------------------------------------------------------|
A#|-8---8-8-8-8---8-8-8-8---8-8-8-8---8-8-8-0---0-0-0-0---0-0-0-0---------------------|
F |-8---8-8-8-8---8-8-8-8---8-8-8-8---8-8-8-0---0-0-0-0---0-0-0-0----------7----------|
A#|-8---8-8-8-8---8-8-8-8---8-8-8-8---8-8-8-0---0-0-0-0---0-0-0-0---0-8-10-----10---7-|

C |------------------------------------------------------------------------------------------|
G |------------------------------------------------------------------------------------------|
D#|------------------------------------------------------------------------------------------|
A#|-8---8-8-8-8---8-8-8-8---8-8-8-8---8-8-8-10---10-10-10-10---10-10-10-5---5-5-5-5---5-5-5--|
F |-8---8-8-8-8---8-8-8-8---8-8-8-8---8-8-8-10---10-10-10-10---10-10-10-5---5-5-5-5---5-5-5--|
A#|-8---8-8-8-8---8-8-8-8---8-8-8-8---8-8-8-10---10-10-10-10---10-10-10-5---5-5-5-5---5-5-5--|


[Verse]

C |---------------------------------------------------------|
G |---------------------------------------------------------|
D#|---------------------------------------------------------|
A#|---------------------------------------------------------|
F |---------------------------------------------------------|
A#|-16-0-0-15-0-0-11-0-0-15-0-0-13-12-0-0---0---0---0---0---|

C |----------------------------------------------------------|
G |----------------------------------------------------------|
D#|----------------------------------------------------------|
A#|----------------------------------------------------------|
F |----------------------------------------------------------|
A#|-16-0-0-15-0-0-11-0-0-15-0-0-13-12-0-0--0--12-12-13-12-12-|

    PM--------------------------------------------------|
C |---------------------------------------------------------|
G |---------------------------------------------------------|
D#|---------------------------------------------------------|
A#|---------------------------------------------------------|
F |---------------------------------------------------------|
A#|-16-0-0-15-0-0-11-0-0-15-0-0-13-12-0-0---0---0---0---0---|
  
    PM-----------------------------------------------------|
C |----------------------------------------------------------|
G |----------------------------------------------------------|
D#|----------------------------------------------------------|
A#|----------------------------------------------------------|
F |----------------------------------------------------------|
A#|-16-0-0-15-0-0-11-0-0-15-0-0-13-12-0-0--0--12-12-13-12-12-|
 

C |---------------------------------------------------------|
G |---------------------------------------------------------|
D#|---------------------------------------------------------|
A#|---------------------------------------------------------|
F |---------------------------------------------------------|
A#|-16-0-0-15-0-0-11-0-0-15-0-0-13-12-0-0---0---0---0---0---|

C |----------------------------------------------------------|
G |----------------------------------------------------------|
D#|----------------------------------------------------------|
A#|----------------------------------------------------------|
F |----------------------------------------------------------|
A#|-16-0-0-15-0-0-11-0-0-15-0-0-13-12-0-0--0--12-12-13-12-12-|


[Pre-Chorus]

C |---------------------------------------------------------------------------------------|
G |---------------------------------------------------------------------------------------|
D#|---------------------------------------------------------------------------------------|
A#|---------------------------------------------------------------------------------------|
F |-----------15-------------------7---------------------15-------------------7-----------|
A#|-0---0---0-15--------0---0-8-10-----10---7--0---0---0-15--------0---0-8-10-----10---7--|


[Chorus]

C |-----------------------------------------------------------------------------------|
G |-----------------------------------------------------------------------------------|
D#|-----------------------------------------------------------------------------------|
A#|-8---8-8-8-8---8-8-8-8---8-8-8-8---8-8-8-0---0-0-0-0---0-0-0-0---------------------|
F |-8---8-8-8-8---8-8-8-8---8-8-8-8---8-8-8-0---0-0-0-0---0-0-0-0----------7----------|
A#|-8---8-8-8-8---8-8-8-8---8-8-8-8---8-8-8-0---0-0-0-0---0-0-0-0---0-8-10-----10---7-|

C |------------------------------------------------------------------------------------------|
G |------------------------------------------------------------------------------------------|
D#|------------------------------------------------------------------------------------------|
A#|-8---8-8-8-8---8-8-8-8---8-8-8-8---8-8-8-10---10-10-10-10---10-10-10-5---5-5-5-5---5-5-5--|
F |-8---8-8-8-8---8-8-8-8---8-8-8-8---8-8-8-10---10-10-10-10---10-10-10-5---5-5-5-5---5-5-5--|
A#|-8---8-8-8-8---8-8-8-8---8-8-8-8---8-8-8-10---10-10-10-10---10-10-10-5---5-5-5-5---5-5-5--|

C |-----------------------------------------------------------------------------------|
G |-----------------------------------------------------------------------------------|
D#|-----------------------------------------------------------------------------------|
A#|-8---8-8-8-8---8-8-8-8---8-8-8-8---8-8-8-0---0-0-0-0---0-0-0-0---------------------|
F |-8---8-8-8-8---8-8-8-8---8-8-8-8---8-8-8-0---0-0-0-0---0-0-0-0----------7----------|
A#|-8---8-8-8-8---8-8-8-8---8-8-8-8---8-8-8-0---0-0-0-0---0-0-0-0---0-8-10-----10---7-|

C |------------------------------------------------------------------------------------------|
G |------------------------------------------------------------------------------------------|
D#|------------------------------------------------------------------------------------------|
A#|-8---8-8-8-8---8-8-8-8---8-8-8-8---8-8-8-10---10-10-10-10---10-10-10-5---5-5-5-5---5-5-5--|
F |-8---8-8-8-8---8-8-8-8---8-8-8-8---8-8-8-10---10-10-10-10---10-10-10-5---5-5-5-5---5-5-5--|
A#|-8---8-8-8-8---8-8-8-8---8-8-8-8---8-8-8-10---10-10-10-10---10-10-10-5---5-5-5-5---5-5-5--|


[Bridge]

C |----------------------------------------------------------------------------------------------------------|
G |----------------------------------------------------------------------------------------------------------|
D#|-----------------------------------------------------------------------------------------------------15---|
A#|-----------------------------------------------------------------------------------------------------15---|
F |----------------------------------------------------------------------------------------------------------|
A#|-16-0-0-15-0-0-11-0-0-15-0-0-13-12-0-0---0-13-12-0-0---0---16-0-0-15-0-0-11-0-0-15-0-0-13-12-0-0--+-------|
                                                                                                     

C |------------------------------------------------------------------------------------------------------|
G |------------------------------------------------------------------------------------------------------|
D#|------------------------------------------------------------------------------------------------------|
A#|------------------------------------------------------------------------------------------------------|
F |------------------------------------------------------------------------------------------------------|
A#|-7-0-0-9-0-0-10-0-0-12----7-0-0-9-0-0-10-0-0-12----13-12-0--13-12-0---0---0-13-12-0--13-12-0---0---0--|

C |------------------------------------------------------------------------------------------------------|
G |------------------------------------------------------------------------------------------------------|
D#|------------------------------------------------------------------------------------------------------|
A#|------------------------------------------------------------------------------------------------------|
F |------------------------------------------------------------------------------------------------------|
A#|-7-0-0-9-0-0-10-0-0-12----7-0-0-9-0-0-10-0-0-12----13-12-0--13-12-0---0---0-13-12-0--13-12-0--15--15--|

C |-----------------------------------------------------------------|
G |-----------------------------------------------------------------|
D#|-----------------------------------------------------------------|
A#|-----------------------------------------------------------------|
F |-----------------------------------------------------------------|
A#|-16-0-0-15-0-0-11-0-0-15-0-0-13-12-0-0---0---0-13-12-0-0---0---0-|


[Chorus]

C |-----------------------------------------------------------------------------------|
G |-----------------------------------------------------------------------------------|
D#|-----------------------------------------------------------------------------------|
A#|-8---8-8-8-8---8-8-8-8---8-8-8-8---8-8-8-0---0-0-0-0---0-0-0-0---------------------|
F |-8---8-8-8-8---8-8-8-8---8-8-8-8---8-8-8-0---0-0-0-0---0-0-0-0----------7----------|
A#|-8---8-8-8-8---8-8-8-8---8-8-8-8---8-8-8-0---0-0-0-0---0-0-0-0---0-8-10-----10---7-|

C |------------------------------------------------------------------------------------------|
G |------------------------------------------------------------------------------------------|
D#|------------------------------------------------------------------------------------------|
A#|-8---8-8-8-8---8-8-8-8---8-8-8-8---8-8-8-10---10-10-10-10---10-10-10-5---5-5-5-5---5-5-5--|
F |-8---8-8-8-8---8-8-8-8---8-8-8-8---8-8-8-10---10-10-10-10---10-10-10-5---5-5-5-5---5-5-5--|
A#|-8---8-8-8-8---8-8-8-8---8-8-8-8---8-8-8-10---10-10-10-10---10-10-10-5---5-5-5-5---5-5-5--|

C |-----------------------------------------------------------------------------------|
G |-----------------------------------------------------------------------------------|
D#|-----------------------------------------------------------------------------------|
A#|-8---8-8-8-8---8-8-8-8---8-8-8-8---8-8-8-0---0-0-0-0---0-0-0-0---------------------|
F |-8---8-8-8-8---8-8-8-8---8-8-8-8---8-8-8-0---0-0-0-0---0-0-0-0----------7----------|
A#|-8---8-8-8-8---8-8-8-8---8-8-8-8---8-8-8-0---0-0-0-0---0-0-0-0---0-8-10-----10---7-|

C |------------------------------------------------------------------------------------------|
G |------------------------------------------------------------------------------------------|
D#|------------------------------------------------------------------------------------------|
A#|-8---8-8-8-8---8-8-8-8---8-8-8-8---8-8-8-10---10-10-10-10---10-10-10-5---5-5-5-5---5-5-5--|
F |-8---8-8-8-8---8-8-8-8---8-8-8-8---8-8-8-10---10-10-10-10---10-10-10-5---5-5-5-5---5-5-5--|
A#|-8---8-8-8-8---8-8-8-8---8-8-8-8---8-8-8-10---10-10-10-10---10-10-10-5---5-5-5-5---5-5-5--|


[Outro]

C |----------------------------------------------------------------------------------------------------------|
G |----------------------------------------------------------------------------------------------------------|
D#|----------------------------------------------------------------------------------------------------------|
A#|----------------------------------------------------------------------------------------------------------|
F |----------------------------------------------------------------------------------------------------------|
A#|-16-0-0-15-0-0-11-0-0-15-0-0-11-0-0---0---0---0---0-16-0-0-15-0-0-11-0-0-15-0-0-11-0-0--0--12-12-13-12-12-|


************************************

| PM  Palm mute
| +   Harmonic 

************************************

            
            
Suggest correction
Creating personal tab
Creating personal tab
You can edit any tab online and save it as your Personal.

You can edit, replace or remove any tab part or add personal notes – all changes will be seen only by you.

Personal tabs can be accessed anytime from any device, even offline.
Learn more »
Give kudos to tab author, rate the tab!
1 2 3 4 5
comments
print report bad tab
guest
You may want to rate the tab now too:
select rating
Wanna post a correction for this tab? Suggest correction