Oops, an error
Loading. Please wait.

Reverse Thunder tab

715 views 3 this week
3 commentsread comments
1 2 3 4 5
2 more votes to show rating
add to favorites
×
Save as Personal and add changes to this tab that will be seen only by you. Learn more ›
×
You can save this tab as Personal to edit and correct it or add notes. All changes will be seen only by you. Learn more »
launch autoscroll
font size
0
reset
how to read this tab
guitar tuner
edit
Autoscroll
slow
fast
+/-
esc
set tempo
stop
-------------------------------------------------------------------------------
                             Reverse Thunder - Red Fang
-------------------------------------------------------------------------------
Tabbed by: Clydelee
E-mail: mqsand@gmail.com

Tuning: Drop C#
Tempo: ~87 bpm, or ~175 if you feel like playing 8ths instead of 16ths vice versa, the rhythms will be tabbed
out as if 175, cause i'm lazy.

This song is great, Red Fang really captures that heavy rock feel, beer can armor hell yeah.

Intro 0:00:

     1 + 2 + 3 + 4 + 1 + 2 + 3 + 4 + 1 + 2 + 3 + 4 + 1 + 2 + 3 + 4 + 
e|-------------------------------------------------------------------|\
B|---------------------3-------------------------------3-------------| \
G|-0h2---------0h2---------0h2-----0h2---------0h2---------0h2-------|  \
D|-------------------------------0-------------------------------0---|   \
A|--------3--------------------------------3-------------------------|    \
E|-------------------------------------------------------------------|     \
                                                                            2x
     1 + 2 + 3 + 4 + 1 + 2 + 3 + 4 + 1 + 2 + 3 + 4 + 1 + 2 + 3 + 4 +        /
e|-------------------------------------------------------------------|     /
B|---------3-------------------------------3-----------3-------------|    /
G|-0h2---------0h2---------0h2-----0h2---------0h2---------0h2-------|   /
D|-------------------------------0-------------------------------0---|  /
A|---------------------1---------------------------------------------| /
E|-------------------------------------------------------------------|/

Lead ~0:20
     1  +  2  +  3  +  4  +  1  +  2  +  3  +  4  +  1  +  2  +  3  +  4  +  1  +  2  +  3  +  4  + 
e|--------------------------------------------------------------------------------------------------|
B|------------3-----------------3--------------3--------------3-----------------3--------------3--1-|
G|-0h2--2--2-----------2--2--2-----------0--2--------2--2--2-----------2--2--2-----------0--2-------|
D|--------------------------------------------------------------------------------------------------|
A|--------------------------------------------------------------------------------------------------|
E|--------------------------------------------------------------------------------------------------|

Rhythm under lead ~0:20
     1  +  2  +  3  +  4  +  1  +  2  +  3  +  4  +  1  +  2  +  3  +  4  +  1  +  2  +  3  +  4  + 
e|--------------------------------------------------------------------------------------------------|
B|--------------------------------------------------------------------------------------------------|
G|--------------------------------------------------------------------------------------------------|
D|---0-----0--3-----3--5-----5--8-----8--8--10-12-10-0-----0--3-----3--5-----5--8-----8--8--10-12-10|
A|---0-----0--3-----3--5-----5--8-----8--8--10-12-10-0-----0--3-----3--5-----5--8-----8--8--10-12-10|
E|---0-----0--3-----3--5-----5--8-----8--8--10-12-10-0-----0--3-----3--5-----5--8-----8--8--10-12-10|

The section aboves is played twice, on the second time the pattern stops on beat 4 with the lead bending the
note, basically listen for the difference right before the vocals come in.

"Verse?" ~0:28
     1  +  2  +  3  +  4  +  1  +  2  +  3  +  4  +  1  +  2  +  3  +  4  +  1  +  2  +  3  +  4  + 
e|--------------------------------------------------------------------------------------------------|\
B|--------------------------------------------------------------------------------------------------| \
G|--------------------------------------------------------------------------------------------------|  \
D|---12-------3-----3--5-----5--8-----8--8--10-12-10-12-------3-----3--5-----5--8-----8--8--10-12-10|  4x
A|---12-------3-----3--5-----5--8-----8--8--10-12-10-12-------3-----3--5-----5--8-----8--8--10-12-10| /
E|---12-------3-----3--5-----5--8-----8--8--10-12-10-12-------3-----3--5-----5--8-----8--8--10-12-10|/


"Chorus?" ~0:50
                  "You're in hell, but you cant even tell!"

     1  +  2  +  3  +  4  +  1  +  2  +  3  +  4  +  1  +  2  +  3  +  4  +  1  +  2  +  3  +  4  + 
e|--------------------------------------------------------------------------------------------------|\
B|--------------------------------------------------------------------------------------------------| \
G|--------------------------------------------------------------------------------------------------|  \
D|---7-----7--7--7--7--7--7--7--7--7--7--7--7--7--7--x--10-------5-----5--------10-------5--7--5----|  4x
A|---5-----5--5--5--5--5--5--5--5--5--5--5--5--5--5--x--8--------3-----3--------8--------3--5--3----| /
E|---0-----0--0--0--0--0--0--0--0--0--0--0--0--0--0--x--------0-----------------------0-------------|/

"Verse?" ~1:14
     1  +  2  +  3  +  4  +  1  +  2  +  3  +  4  +  1  +  2  +  3  +  4  +  1  +  2  +  3  +  4  + 
e|--------------------------------------------------------------------------------------------------|\
B|--------------------------------------------------------------------------------------------------| \
G|--------------------------------------------------------------------------------------------------|  \
D|---12-------3-----3--5-----5--8-----8--8--10-12-10-12-------3-----3--5-----5--8-----8--8--10-12-10|  4x
A|---12-------3-----3--5-----5--8-----8--8--10-12-10-12-------3-----3--5-----5--8-----8--8--10-12-10| /
E|---12-------3-----3--5-----5--8-----8--8--10-12-10-12-------3-----3--5-----5--8-----8--8--10-12-10|/

at this point in the song 1:38ish, it goes into another lead + rhythm part similar to the intro, it is very
similar except for there are multiple lead lines.


"Chorus?" back in a around 2:00

                  "You're in hell, but you cant even tell!"

     1  +  2  +  3  +  4  +  1  +  2  +  3  +  4  +  1  +  2  +  3  +  4  +  1  +  2  +  3  +  4  + 
e|--------------------------------------------------------------------------------------------------|\
B|--------------------------------------------------------------------------------------------------| \
G|--------------------------------------------------------------------------------------------------|  \
D|---7-----7--7--7--7--7--7--7--7--7--7--7--7--7--7--x--10-------5-----5--------10-------5--7--5----|  4x
A|---5-----5--5--5--5--5--5--5--5--5--5--5--5--5--5--x--8--------3-----3--------8--------3--5--3----| /
E|---0-----0--0--0--0--0--0--0--0--0--0--0--0--0--0--x--------0-----------------------0-------------|/

"Outro?"
     1  +  2  +  3  +  4  +  1  +  2  +  3  +  4  +  1  +  2  +  3  +  4  +  1  +  2  +  3  +  4  + 
e|--------------------------------------------------------------------------------------------------|\
B|--------------------------------------------------------------------------------------------------| \
G|--------------------------------------------------------------------------------------------------|  \
D|---9-----9--9--9--9--9--9--9--5--3--0--5--6--5--3--9-----9--9--9--9--9--9--9--5--3--0--5--6--5--3-|  2x
A|---9-----9--9--9--9--9--9--9--5--3--0--5--6--5--3--9-----9--9--9--9--9--9--9--5--3--0--5--6--5--3-| /
E|---9-----9--9--9--9--9--9--9--5--3--0--5--6--5--3--9-----9--9--9--9--9--9--9--5--3--0--5--6--5--3-|/

    "Black    cold     eyes!!"
   (Souls     of       fire!!")
     1  +  2  +  3  +  4  +  1  +  2  +  3  +  4  +  1  +  2  +  3  +  4  +  1  +  2  +  3  +  4  + 
e|--------------------------------------------------------------------------------------------------|
B|--------------------------------------------------------------------------------------------------|
G|--------------------------------------------------------------------------------------------------|
D|---9-----9--9--9--9--9--9--9--5--3--0--5--6--5--3--9-----9--9--9--9--9--9--9--5--3--0--5--6--5--3-|
A|---9-----9--9--9--9--9--9--9--5--3--0--5--6--5--3--9-----9--9--9--9--9--9--9--5--3--0--5--6--5--3-| 
E|---9-----9--9--9--9--9--9--9--5--3--0--5--6--5--3--9-----9--9--9--9--9--9--9--5--3--0--5--6--5--3-|

    "Dark     red      sky!!"
    (????????????????????????)
     1  +  2  +  3  +  4  +  1  +  2  +  3  +  4  +  1  +  2  +  3  +  4  +  1  +  2  +  3  +  
e|--------------------------------------------------------------------------------------------|
B|--------------------------------------------------------------------------------------------|
G|--------------------------------------------------------------------------------------------|  
D|---9-----9--9--9--9--9--9--9--5--3--0--5--6--5--3--9--9--9--10----7-----9-----10----7--7--7-|
A|---9-----9--9--9--9--9--9--9--5--3--0--5--6--5--3--9--9--9--10----7-----9-----10----7--7--7-|
E|---9-----9--9--9--9--9--9--9--5--3--0--5--6--5--3--9--9--9--10----7-----9-----10----7--7--7-|

Outro is played twice, then it goes into a short solo, which is basically a variant of the intro melody/pattern
and then ends on a C#. Well hopefully this is close, it sounds decent enough when i play it, not sure about the 
lyrics but whatever. Let me know if anything is glaringly wrong, especially with the rhythms, not sure if they
are accurate but it seems to reflect the song well, enjoy.
************************************

| /   slide up
| \   slide down
| h   hammer-on
| p   pull-off
| ~   vibrato
| +   harmonic
| x   Mute note
| b   Bend
| pb  Pre-bend
| br  Bend release
| pbr Pre-bend release
| brb Bend release bend

************************************

            
            
Suggest correction
Creating personal tab
Creating personal tab
You can edit any tab online and save it as your Personal.

You can edit, replace or remove any tab part or add personal notes – all changes will be seen only by you.

Personal tabs can be accessed anytime from any device, even offline.
Learn more »
Give kudos to tab author, rate the tab!
1 2 3 4 5
comments
print report bad tab
3 comments total.
0 reply
lolrent 12 Mar 15, 2017 12:15 PM, edited at 05:16 pm

 In the intro it seems he is doing hammer ons each time he hits the B string, but the notes are good anyway, it's just for the optimal effect.I think the part after the horus is something like [code]e|------------------------------------------------------------------------------------------------------------------|\B|-----------------------------------------------------------------------------------------------------------------| \G|--------------------------------------------------------------------------------------------------|---------------  \D|---9-----9--9--9--9--9--9--9--5--3--0--5--6--5--3--9-----9--9--9--9--9--9--9--5--3--0--5--6--5--3-|  2xA|---9-----9--9--9--9--9--9--9--5--3--0--5--6--5--3--9-----9--9--9--9--9--9--9--5--3--0--5--6--5--3-| /E|---9-----9--9--9--9--9--9--9--5--3--0--5--6--5--3--9-----9--9--9--9--9--9--9--5--3--0--5--6--5--3-|/[/code][code]Good job, thanks for the tab![/code]

0 reply
lolrent 12 Mar 15, 2017 01:21 PM, edited at 05:23 pm

Formating didnt seem to work... Ok so my suggested edit were : 1) the order of the chords in the outro is :E| -9-----9--9--9--9--9--9--9--5--3--0--5--6--5--3--9Also at the end of this segment I would change the 9-9-9 so it looks like this : E|---9-----9--9--9--9--9--9--9--3--5--3--5--6--5--3--9--9--9--10----7-----9-----10----7--7--7-9-| (the last 9 is irrelevent if you repeat the segment...)

0 reply
lolrent 12 Mar 15, 2017 01:50 PM

Ok last comment : looking at a live video he actually plays the intro on the D string and I think it's easier to play and sounds smoother. It's also gonna help for the solo to play in this area of the fretboard. cheers

guest
You may want to rate the tab now too:
select rating
Wanna post a correction for this tab? Suggest correction