Oops, an error
Loading. Please wait.
We have an official By The Way tab made by UG professional guitarists. Check out the tab »
×
320,887 views 42 this week
18 commentsread comments
1 2 3 4 5
x 75
add to favorites
×
Save as Personal and add changes to this tab that will be seen only by you. Learn more ›
×
You can save this tab as Personal to edit and correct it or add notes. All changes will be seen only by you. Learn more »
launch autoscroll
font size
0
reset
guitar tuner
backing track
0:00
0:00
edit
Autoscroll
slow
fast
+/-
esc
set tempo
stop
Author
Unregistered
Song;By The Way
Band;Red Hot Chili Peppers
Album;By The Way

h=hammer on

[Intro/Slow chorus]

G|17-17-17-17--17-17-17-17--17-17-17-17-17-17-17-17--14-14-14-14-|
D|15-15-15-15--15-15-15-15--14-14-14-14-14-14-14-14--14-14-14-14-|
A|---------------------------------------------------------------|
E|---------------------------------------------------------------|


[Intro]

G|14-14-14-14--14-14-14-14--14-14-14-14-------------------------|
D|14-14-14-14--14-14-14-14--14-14-14-14-------------------------|
A|--------------------------------------------------------------|
E|--------------------------------------------------------------|


[Verse]

G|-------------------------------------------------------------------------------|
D|---------3-------------------3------------------3------------------------------|
A|-5-5-3h5--3h5-0h3---5-5-3h5---0h3--------5-5-3h5--3h5-0h3--5-5-3h5-5-5-6-6-6-6-|
E|----------------------------------3h5-----------------------------------------|


[Chorus]

G|----------------------------------------------------------|
D|--3-3-3-5-3-2------2-2-2---0-0-0-0-0-0-0-0-0-2-2----------|
A|-------------3-3-3----------------------------------------|
E|----------------------------------------------------------|


[Chorus cont.]

G|--------------------------------------------------------------|
D|--3-3-3-5-3-2-------2-2-2-------------------------------------|
A|-------------3-3-3----------0-0-0-0-0-1--1-1-1--3-3-----------|
E|--------------------------------------------------------------|

End on open A
Please rate this,If you like it please email me at
dirtyaldante@hotmail.com

            
            
Suggest correction
Creating personal tab
Creating personal tab
You can edit any tab online and save it as your Personal.

You can edit, replace or remove any tab part or add personal notes – all changes will be seen only by you.

Personal tabs can be accessed anytime from any device, even offline.
Learn more »
comments
print report bad tab
18 comments total. Showing first comments. show 1 bad comment
+3 reply
frusciante_man1 20 Mar 22, 2007 12:08 PM

not right

0 reply
aram-ginga 10 Jul 03, 2007 08:38 PM

not right at all. you strum on a bass, and its played in drop d and the intro is way wrong, its not even the same as the guitar.

guest
Wanna post a correction for this tab? Suggest correction