Oops, an error
Loading. Please wait.
We have an official Dark Necessities tab made by UG professional guitarists. Check out the tab »
×
2,224 views 6 this week
no commentswrite comment
1 2 3 4 5
x 4
add to favorites
×
Save as Personal and add changes to this tab that will be seen only by you. Learn more ›
×
You can save this tab as Personal to edit and correct it or add notes. All changes will be seen only by you. Learn more »
launch autoscroll
font size
0
reset
guitar tuner
backing track
0:00
0:00
edit
Autoscroll
slow
fast
+/-
esc
set tempo
stop
Author
Difficulty
intermediate
This is a very detailed tab sheet which took me some time. I believe it to be very accurate.

Have fun with it!



Intro (Repeat it several times)

G|---------------------------------------------------------------------------|
D|----------------10(16x)-8(16x)---------------------------------------------|
A|-11(16x)-8(16x)------------------------------------------------------------|
E|---------------------------------------------------------------------------|


Verse (Slapping, Popping, Double-Plucking(Triplets))

Use the Double-Plucking technique to pluck the dead notes on the E and D string. 
Greatly improves the groove of the verse. Leave them out if you haven't mastered this technique yet,
Flea doesn't use it either.


G-----------5-----x-----3---5---x----------------5----x---3-------5----x----------|
D---------x-----------------------------------------------------------------------|
A--3-----------x-----x----x-------------------x----x----x-----x------------1---3--|
E------x----------------------------3--4--x---------------------------------------|

G-----------5-----x-----3---5---x----------------5----x---3-------5----x----------|
D---------x-----------------------------------------------------------------------|
A--------------x-----3----x-------------------x----x----x-----x-------------------|
E------x----------------------------3--4--x---------------------------------------|

G-----------5-----x-----3---5---x----------------5----x---3-------5----x----------|
D---------x-----------------------------------------------------------------------|
A---3-----------x-----x----x-------------------x----x----x-----x------------1---3-|
E-4-----x----------------------------3--4--x--------------------------------------|

G-----------5-----x-----3---5---x----------------5----x---3-------5----x----------|
D---------x-----------------------------------------------------------------------|
A---------------x-----x----x-------------------x----x----x-----x------------------|
E------x----------------------------3--4--x-------------------------------4---1---|

G---------------------------------------------------------------------------------|
D------------3----x---3--3--3-------------6-------x----6-------------x------------|
A---------x------------------------------x--------------------8--6--------3-------|
E------x------x----1--x---x--1/4-4--x--------x----x-----x---x---x-----------------|

G-----------5-----x-----3---5---x------------------------5----x---8---7---5---x---|
D---------x--------------------------------------------x--------------------------|
A--------------x-----3----x--------------1----3-----------x----x--x---x----x------|
E------x--------------------------------------------x-----------------------------|

G-----------5-----x-----3---5---x----------------5----x---3-------5----x----------|
D---------x-----------------------------------------------------------------------|
A--3-----------x-----x----x-------------------x----x----x-----x------------1---3--|
E------x----------------------------3--4--x---------------------------------------|

G-----------5-----x-----3---5---x----------------5----x---3-------5----x----------|
D---------x-----------------------------------------------------------------------|
A---------------x-----x----x-------------------x----x----x-----x------------------|
E------x----------------------------3--4--x--------------------------------4---1--|

G---------------------------------------------------------------------------------|
D------------3----x---3--3--3-------------6-----x----6-------------x--------------|
A---------x----------------------------x-------------------8---6--------3---------|
E------x------x----1--x---x--1/4-4--x--------x-----x-----x---x---x----------------|

G-----------5-----x-----3---5---x------------------------5----x---8---7---5---x---|
D---------x--------------------------------------------x--------------------------|
A--------------x-----3----x--------------1----3-----------x----x--x---x----x------|
E------x--------------------------------------------x-----------------------------|



Chorus 


G|--------13----------13----------------10------10-------------5-------5-----|
D|---------------------------------------------------------------------------|
A|-111111----111111------x11-10--8--888---888------x8--6--x333---333---------|
E|---------------------------------------------------------------------------|

G-----------3-----3----------------------------------------------------------|
D----------------------------------------------------------------------------|
A-x3-0--111--111---x1-3(/)---------------------------------------------------|
E----------------------------------------------------------------------------|

G|--------13----------13----------------10------10-------------5-------5-----|
D|---------------------------------------------------------------------------|
A|-111111----111111------x11-10--8--888---888------x8--6--x333---333---------|
E|---------------------------------------------------------------------------|

G-------3-------3-----3-----------------------------------------------------------|
D---------------------------------------------------------------------------------|
A-111-----111-------1---1-2-------------------------------------------------------|
E---------------------------------------------------------------------------------|


Verse


G-----------5-----x-----3---5---x----------------5----x---3-------5----x----------|
D---------x-----------------------------------------------------------------------|
A--3-----------x-----x----x-------------------x----x----x-----x------------1---3--|
E------x----------------------------3--4--x---------------------------------------|

G-----------5-----x-----3---5---x----------------5----x---3-------5----x----------|
D---------x-----------------------------------------------------------------------|
A--------------x-----3----x-------------------x----x----x-----x-------------------|
E------x----------------------------3--4--x---------------------------------------|

G-----------5-----x-----3---5---x----------------5----x---3-------5----x----------|
D---------x-----------------------------------------------------------------------|
A---3-----------x-----x----x-------------------x----x----x-----x------------1---3-|
E-4-----x----------------------------3--4--x--------------------------------------|

G-----------5-----x-----3---5---x----------------5----x---3-------5----x----------|
D---------x-----------------------------------------------------------------------|
A---------------x-----x----x-------------------x----x----x-----x------------------|
E------x----------------------------3--4--x-------------------------------4---1---|

G---------------------------------------------------------------------------------|
D------------3----x---3--3--3-------------6-----x----6-------------x--------------|
A---------x----------------------------x-------------------8---6--------3---------|
E------x------x----1--x---x--1/4-4--x--------x-----x-----x---x---x----------------|

G-----------5-----x-----3---5---x------------------------5----x---8---7---5---x---|
D---------x--------------------------------------------x--------------------------|
A--------------x-----3----x--------------1----3-----------x----x--x---x----x------|
E------x--------------------------------------------x-----------------------------|


Chorus


G|--------13----------13----------------10------10-------------5-------5-----|
D|---------------------------------------------------------------------------|
A|-111111----111111------x11-10--8--888---888------x8--6--x333---333---------|
E|---------------------------------------------------------------------------|

G-----------3-----3----------------------------------------------------------|
D----------------------------------------------------------------------------|
A-x3-0--111--111---x1-3(/)---------------------------------------------------|
E----------------------------------------------------------------------------|

G|--------13----------13----------------10------10-------------5-------5-----|
D|---------------------------------------------------------------------------|
A|-111111----111111------x11-10--8--888---888------x8--6--x333---333---------|
E|---------------------------------------------------------------------------|

G-------3-------3----------1-----------------------------------------------------|
D---------------------x1h3----3-(1)------------------------------------------------------|
A-111-----111--------------------------------------------------------------|
E---------------------------------------------------------------------------------|


Bridge - C-major scale descending (Try to rake the dead notes on the D string)


G--x8-7-5---------------------------x6-5-3----------------------------------------|
D-----------8-6-5--------x-----------------6-4-3-------x--------------------------|
A------------------8-0-6---6--6------------------6-0-3---3--3---------------------|
E---------------------------------------------------------------------------------|

G--x10-9-7---------------------------x13-12-10------------------------------------|
D-----------10-8-7--------x-------------------13-11-10-----------x----------------|
A------------------10-0-8---8--8------------------------13-12-11--11--11----------|
E---------------------------------------------------------------------------------|

G--x8-7-5---------------------------x6-5-3----------------------------------------|
D-----------8-6-5--------x-----------------6-4-3--------x-------------------------|
A------------------8-0-6---6---6------------------6-0-3---3--3--------------------|
E---------------------------------------------------------------------------------|

G--x10-9-7------------------------------------------------------------------------|
D----------10-8-7----------x------------------------------------------------------|
A-------------------10-0-8---8--8-(8/11~)-----------------------------------------|
E---------------------------------------------------------------------------------|


Verse


G-----------5-----x-----3---5---x----------------5----x---3-------5----x----------|
D---------x-----------------------------------------------------------------------|
A---3-----------x-----x----x-------------------x----x----x-----x------------1---3-|
E------x----------------------------3--4--x--------------------------------------|

G-----------5-----x-----3---5---x----------------5----x---3-------5----x----------|
D---------x-----------------------------------------------------------------------|
A---------------x-----x----x-------------------x----x----x-----x------------------|
E------x----------------------------3--4--x-------------------------------4---1---|

G---------------------------------------------------------------------------------|
D------------3----x---3--3--3-------------6-----x----6-------------x--------------|
A---------x----------------------------x-------------------8---6--------3---------|
E------x------x----1--x---x--1/4-4--x--------x-----x-----x---x---x----------------|

G-----------5-----x-----3---5---x------------------------5----x---8---7---5---x---|
D---------x--------------------------------------------x--------------------------|
A--------------x-----3----x--------------1----3-----------x----x--x---x----x------|
E------x--------------------------------------------x-----------------------------|


Chorus


G------------------------------------------------------5---------5----------------|
D-------6-------6---------------3------3------------------------------------------|
A----------------------------------------------1--333------333----x3-0------------|
E--444----444--------x4-3--111----111-------x3------------------------------------|

G-------3-------3-----------------------------------------------------------------|
D---------------------------------------------------------------------------------|
A-111-----111------x1h3-----------------------------------------------------------|
E-------------------------3-------------------------------------------------------|

G------------------------------------------------------5---------5----------------|
D-------6-------6---------------3------3------------------------------------------|
A----------------------------------------------1--333------333----x3-0------------|
E--444----444--------x4-3--111----111-------x3------------------------------------|

G-------3-------3---3---11----------------------------------------------------------|
D---------------------------------------------------------------------------------|
A-111-----111-----1--122---------------------------------------------------------|
E---------------------------------------------------------------------------------|

Bridge

G|--------------------------------------------------------x5--5~--5---------------|
D|---x6--6--3-----x3--3/10-------1-------------------x10--------------------3-----|
A|---------------------------x3----1---x1-1/11---x11----8------------x6--5--------|
E|--------------------------------------------------------------------------------|


G|--------------------------------------------------------------------------------|
D|--------------------------------------------------------------------------------|
A|-----6--8-----------------------------------------------------------------------|
E|--------------------------------------------------------------------------------|


Chorus (while the guitar plays the solo)


G|--------13----------13----------------10------10-------------5-------5-----|
D|---------------------------------------------------------------------------|
A|-111111----111111------x11-10--8--888---888------x8--6--x333---333---------|
E|---------------------------------------------------------------------------|

G-----------3-----3----------------------------------------------------------|
D----------------------------------------------------------------------------|
A-x3-0--111--111---x1-3(/)---------------------------------------------------|
E----------------------------------------------------------------------------|

G|--------13----------13----------------10------10-------------5-------5-----|
D|---------------------------------------------------------------------------|
A|-111111----111111------x11-10--8--888---888------x8--6--x333---333---------|
E|---------------------------------------------------------------------------|

G|-----------3-----3---------------------------------------------------------|
D|---------------------------------------------------------------------------|
A|-x3-0--111--111----x1------------------------------------------------------|
E|-----------------------7---------------------------------------------------|

Outro (Double Stops)

G|--5----5--5/--13----13--13\--10----10--10--7----7--7---5-------------------|
D|---------------------------------------------------------------------------|
A|--3----3--3/--11----11--11\--8-----8---8---5----5--5---3-------------------|
E|-(4)---------(12)----------------------------------------------------------|

            
            
Suggest correction
Creating personal tab
Creating personal tab
You can edit any tab online and save it as your Personal.

You can edit, replace or remove any tab part or add personal notes – all changes will be seen only by you.

Personal tabs can be accessed anytime from any device, even offline.
Learn more »
comments
print report bad tab
guest
You may want to rate the tab now too:
select rating
Wanna post a correction for this tab? Suggest correction