Oops, an error
Loading. Please wait.
We have an official Dont Forget Me tab made by UG professional guitarists. Check out the tab »
×
7,764 views 3 this week
no commentswrite comment
1 2 3 4 5
x 5
add to favorites
×
Save as Personal and add changes to this tab that will be seen only by you. Learn more ›
×
You can save this tab as Personal to edit and correct it or add notes. All changes will be seen only by you. Learn more »
launch autoscroll
font size
0
reset
how to read this tab
guitar tuner
backing track
0:00
0:00
edit
Autoscroll
slow
fast
+/-
esc
set tempo
stop
Author
Difficulty
John Frusciante, Flea and Chad Jam  -  Montreal 2006 Youtube - 
Tabbed by: James Rains
Tuning: standard eadgbe

*A great improvisation of an end jam of don't forget me at a concert in Montreal 
in 2006. the chili 
peppers are gods!!! this is a very accurate tab of this jam pretty much exactly 
the way john plays it.
the notes are correct it is up to you to synchronize the timing. 

enjoy this great piece of music!! :)

-------------------------------------------------------------------------------
        Flea and John frusciante jam Montreal 2006, youtube - Red Hot chili peppers
-------------------------------------------------------------------------------
Tabbed by:James Rains
Email:homerunj3@msn.com

Tuning:standard e a d g b e

e|------------------------------------------|-------------------------------------------------|
b|---13-12-10------------10--------10-------|--13-12-10------------13----------------13-------|
g|------------12--9--12-----9--12-----9--12-|-----------12-9-12-12-------------12--9-----12~--|
d|------------------------------------------|-------------------------b12--10~----------------|
a|------------------------------------------|-------------------------------------------------|
e|------------------------------------------|-------------------------------------------------|

e|--19--17--15----15-------------|-20-19-17-15----15h17----15h17|
b|-------------17----17-17-17-17-|-------------17-------17------|
g|-------------------------------|------------------------------|
d|-------------------------------|------------------------------|
a|-------------------------------|------------------------------|
e|-------------------------------|------------------------------|

e|-20-19-17-15---------------------|-----------------------------------------|
b|-------------17-15-13-15-13---12~|-------13----13h15---13------------------|
g|---------------------------------|----------14-------14----------14h15--14-|
d|---------------------------------|----14-----------------------15-----15---|
a|---------------------------------|-12------------------------15------------|
e|---------------------------------|-------------------------13--------------|

|------------------------------------|------17-----------13------------12----------10----|
|-------17-17h18--17-----------------|----17--17-----------13--------13--13------12--12--|
|-----17--------17-----------16h17---|--17------17----14-----14----14------14--12------12|
|---17---------------------17-----17-|--------------15-----------14------------12--------|
|-15---------------------17----------|---------------------------------------------------|
|----------------------15------------|---------------------------------------------------|

|----8---------------------3-3--------7--------8---------13----------15----------19-19b(20)-17~|
|--10-10-------10---------5-5-5------8-8-----10-10-----13--13------17--17------19--------------|
|-9-----9--------10------5-----5s---7---7s--9-----9---14-----14--17------17--19----------------|
|-----------10-----10--------------------------------------------------------------------------|
|----------8-----------------------------------------------------------------------------------|
|----------------------------------------------------------------------------------------------|

|-----------------15-17-----------------15-15------15-15-15~~|
|-15b(17)-13-15s17-----15b(17)-13--15h17-----15h17-------15~~|
|------------------------------------------------------------|
|------------------------------------------------------------|
|------------------------------------------------------------|
|------------------------------------------------------------|

|--------------------------------------------|-------------------------------|
|--------------------------------------------|----------13-12-10-13-12-10----|
|--------------------12-12-14-14-------------|----------------------------12~|
|-12h13p-10-10--12h14------------12h13p-10-10|-10-10-10----------------------|
|--------------------------------------------|-------------------------------|
|--------------------------------------------|-------------------------------|

|----------------------------------------------------------------------------------------------|
|----------------------15s17-17------------15s17-17--------------15s17-17-------------15s17-17-|
|-12h14s16-14p12h14-14----------12h14-14-14----------12h14-14-14----------12h14-14-14----------|
|----------------------------------------------------------------------------------------------|
|----------------------------------------------------------------------------------------------|
|----------------------------------------------------------------------------------------------|

|---------------------------------------------------|--------------------------------------------|
|---------------------6---------------8-------------|--------------------------------------------|
|12h14-14-14-14-12p-9-9b-9-9-9-7-5-7b(9)-7b-5h7-5~~-|--4h5---------------------------------------|
|---------------------------------------------------|-----5----------5h7---5h7-------------------|
|---------------------------------------------------|-------7-7-7-5h7---5h7----------------------|
|---------------------------------------------------|--------------------------5~~~-5S(->)9s(<--)|




************************************

| /   slide up
| \   slide down
| h   hammer-on
| p   pull-off
| ~   vibrato
| +   harmonic
| x   Mute note
| b   Bend
| pb  Pre-bend
| br  Bend release
| pbr Pre-bend release
| brb Bend release bend

************************************


            
            
Suggest correction
Creating personal tab
Creating personal tab
You can edit any tab online and save it as your Personal.

You can edit, replace or remove any tab part or add personal notes – all changes will be seen only by you.

Personal tabs can be accessed anytime from any device, even offline.
Learn more »
comments
print report bad tab
guest
You may want to rate the tab now too:
select rating
Wanna post a correction for this tab? Suggest correction