Oops, an error
Loading. Please wait.
5,869 views 1 this week
1 commentread comment
1 2 3 4 5
x 3
add to favorites
×
Save as Personal and add changes to this tab that will be seen only by you. Learn more ›
×
You can save this tab as Personal to edit and correct it or add notes. All changes will be seen only by you. Learn more »
launch autoscroll
font size
0
reset
how to read this tab
guitar tuner
edit
Autoscroll
slow
fast
+/-
esc
set tempo
stop
Artist: Red Hot Chili Peppers
Track:  Dosed

Tabbed by Steve Hill (swhill13@aol.com)

Standard Tuning
(parenthesis stand for harmonics)

I am tired of seeing everyone tabbing it wrong.  Normally I would just
complain to the makers of the tabs, but I felt like making sure people
had it right instead.

INTRO

e|-12-----12----12----12----10----10----7----7---|
B|------12----12----12----10----10----8----8-----|
G|----12----12----12----11----11----9----9-------|
D|-----------------------------------------------|
A|-----------------------------------------------|
E|-----------------------------------------------|

And if you want to sound MORE official about it, play it like this:

e|-(12)-----(12)----(12)----(12)---------------------7------7--|
B|-------(12)----(12)----(12)-------(7)------(7)---8------8----|
G|----(12)----(12)----(12)-------(7)------(7)----9------9------|
D|----------------------------(7)------(7)---------------------|
A|-------------------------------------------------------------|
E|-------------------------------------------------------------|

OK, maybe it's not more official sounding, but I'm obsessed with
harmonics and I like the way that sounds.

            
            
Suggest correction
Creating personal tab
Creating personal tab
You can edit any tab online and save it as your Personal.

You can edit, replace or remove any tab part or add personal notes – all changes will be seen only by you.

Personal tabs can be accessed anytime from any device, even offline.
Learn more »
Give kudos to tab author, rate the tab!
1 2 3 4 5
comments
print report bad tab
1 comment total.
+1 reply
strikethree 52 Oct 05, 2009 05:54 PM

You still tabbed it wrong. BTW your harmonic preference is wrong too. Sounds nothing like the original. Here's the correct tab:

e|--12----12----12----12----10----10----7----7-----|
B|------12----12----12----10----10----8----8----12-|
G|----12----12----12----11----11----9----9----12---|
D|-------------------------------------------------|
A|-------------------------------------------------|
E|-------------------------------------------------|

guest
Wanna post a correction for this tab? Suggest correction