Oops, an error
Loading. Please wait.

End Jam Werchter 2006 Live tab

142 views 9 this week
no commentswrite comment
1 2 3 4 5
3 more votes to show rating
add to favorites
×
Save as Personal and add changes to this tab that will be seen only by you. Learn more ›
×
You can save this tab as Personal to edit and correct it or add notes. All changes will be seen only by you. Learn more »
launch autoscroll
font size
0
reset
how to read this tab
guitar tuner
edit
Autoscroll
slow
fast
+/-
esc
set tempo
stop
About this tab version
Its the same jam they do in the end of "By The Way" there is a few variation and a solo at the end. link to this live ( https://www.youtube.com/watch?v=uqvbIhzlt4A ). Was this info helpful? Yes No
Title: End Jam ( Werchter 2006 )
Artist: Red Hot Chili Peppers
Tabbed by: hanifidst 
E-mail: hanifibelaroui95@hotmail.com

[Outro]
e|--------------------------------------------------5h8p7-----------6h8p6------------------------------------|
B|---6----6--6-6-6-x----5-5-x--6--6h8p6---6-6-x--6-------6-5-5-x-6-------6--6--6-6-6-6-6--6-8p6--5-5-x--6----|
G|---7----7--7-7-5-x----5-5-x--7-------7--7-7-x--7---------5-5-x-7----------7--7-7-7-7-7--5-5----5-5-x--7----|
D|---7--7-7--7-7-7-x----7-7-x--8----------7-7-x--7---------7-7-x-8----------7--7-7-7-7-7---------7-7-x--8----|
A|---5----5--5-5-5-x----x-x-x--x----------5-5-x--5---------x-x-x-x----------5--5-5-5-5-5---------x-x-x--x----|
E|----------------------5-5-x--6---------------------------5-5-x-6-------------------------------5-5-x--6----|

e|----------------------------------------------------------------------------------------------------------|
B|---6--6-6-6--6-5h6p5--5-5-x--6--6-x--------6--6-6-6-6--------5-5-x--6--6---6---x-x------------------------|
G|---7--7-7-7--7------7-5-5-x--7--7-x--5p3---7--7-7-7-7--5h7p5-5-5-x--7--7---7---x-x------------------------|
D|---7--7-7-7--7--------7-7-x--8--8-x--------7--7-7-7-7--------7-7-x--8----8---8-x-x------------------------|
A|---5--5-5-5--5--------x-x-x--x--x-x------5-5--5-5-5-5--------x-x-x--x-------------------------------------|
E|----------------------5-5-x--6--6-x--------------------------5-5-x--6-------------------------------------|
( Its the main structure of the jam and before he start the solo -which is a D minor improvisation- he adds
some little lick between the chords that i might tab later )

Rate the tab please

************************************

| x   Dead note
| h   Hammer-on
| p   Pull-off


************************************

            
            
Suggest correction
Creating personal tab
Creating personal tab
You can edit any tab online and save it as your Personal.

You can edit, replace or remove any tab part or add personal notes – all changes will be seen only by you.

Personal tabs can be accessed anytime from any device, even offline.
Learn more »
Give kudos to tab author, rate the tab!
1 2 3 4 5
comments
print report bad tab
guest
You may want to rate the tab now too:
select rating
Wanna post a correction for this tab? Suggest correction