Oops, an error
Loading. Please wait.
We have an official Fortune Faded tab made by UG professional guitarists. Check out the tab »
×

Fortune Faded tab

112,479 views 144 this week
24 commentsread comments
1 2 3 4 5
x 60
add to favorites
×
Save as Personal and add changes to this tab that will be seen only by you. Learn more ›
×
You can save this tab as Personal to edit and correct it or add notes. All changes will be seen only by you. Learn more »
launch autoscroll
font size
0
reset
how to read this tab
guitar tuner
backing track
0:00
0:00
edit
Autoscroll
slow
fast
+/-
esc
set tempo
stop
Author
Unregistered
FORTUNE FADED - Red Hot Chili Peppers (Greatest Hits 2003)
____________________________________________________________________________

Tabbed by: -> Anto Himself <-
Email: tonidrums@aol.com
MSN: tonidrums@aol.com

He play on a standard tuned guitar, with overdrive (or a little ampli distortion with reverb).

I never seen a corect tab for this song here, so I'll try to tell you what I
play, it sounds good, like the original song. Have fun by playing that. Funky !

[Intro]

e|----------|
B|----------|
G|-3-3-3-3--|
D|-4-4-4-4--|
A|-4-4-4-4--|
E|-2-2-2-2--|

Play 16 times (listen to the song)

[Verse 1]
e|-------------------------------------------------------9------9------9---|
B|---------------------------------10---10---10----------------------------|
G|------11------------11--------------11---11---11-------------------------|
D|-9-------11---9-9-9----11---9--------------------------------------------|
A|-------------------------------------------------------------------------|
E|-------------------------------------------------------------------------|

e|-------------------------------------------------------------------------|
B|------------------------------------10----------------10-----------------|
G|-----11-------------11-----------------------11------------------11\-----|
D|-9-------11---9-9-9----11---9--------------------------------------------|
A|-------------------------------------------------------------------------|
E|-------------------------------------------------------------------------|

1st Time
e|---------------------------------------------------9999---9--------------|
B|---------------------------------------------------9999---9--------------|
G|---------------------------7----7----7------7------9999---9------7-------|
D|-x-x---x-x---x-x---x-x-----7----7----7------7------7777---7------7-------|
A|-x-x---x-x---x-x---x-x-----5----5----5------5------7777---7------5-------|
E|-x-x---x-x---x-x---x-x-----5----5----5------5------7777---7------5-------|

e|---------------------------------------------------9999---9------9-9-9---|
B|---------------------------------------------------9999---9------9-9-9---|
G|---------------------------7----7----7------7------9999---9------9-9-9---|
D|-x-x---x-x---x-x---x-x-----7----7----7------7------7777---7------7-7-9---|
A|-x-x---x-x---x-x---x-x-----5----5----5------5------7777---7------7-7-7---|
E|-x-x---x-x---x-x---x-x-----5----5----5------5------7777---7------7-7-7---|

e|-------------------------------------------------------------------------|
B|------------------------------------10------------------10---------------|
G|------11------------11------------------------11------------------11\----|
D|-9-------11---9-9-9----11---9--------------------------------------------|
A|-------------------------------------------------------------------------|
E|-------------------------------------------------------------------------|

2nd Time
e|---------------------------------------------------9999---9--------------|
B|---------------------------------------------------9999---9--------------|
G|---------------------------7----7----7------7------9999---9------7-------|
D|-x-x---x-x---x-x---x-x-----7----7----7------7------7777---7------7-------|
A|-x-x---x-x---x-x---x-x-----5----5----5------5------7777---7------5-------|
E|-x-x---x-x---x-x---x-x-----5----5----5------5------7777---7------5-------|

e|---------------------------------------------------9999---9------9-9-9---|
B|---------------------------------------------------9999---9------9-9-9---|
G|---------------------------7----7----7------7------9999---9------9-9-9---|
D|-x-x---x-x---x-x---x-x-----7----7----7------7------7777---7------7-7-9---|
A|-x-x---x-x---x-x---x-x-----5----5----5------5------7777---7------7-7-7---|
E|-x-x---x-x---x-x---x-x-----5----5----5------5------7777---7------7-7-7---|

e|-------------------------------------------------------------------------|
B|---------------------------------10---10---10---------10---10---10-------|
G|------11------------11--------------11---11---11---------11---11---11\---|
D|-9-------11---9-9-9----11---9--------------------------------------------|
A|-------------------------------------------------------------------------|
E|-------------------------------------------------------------------------|

[Chorus]
e|-------------------------------------------------------------------------|
B|-------------------------------------------------------------------------|
G|----------7--------------------------------------------------------------|
D|-7---7-7--7--7\---5---5-5---5-5/---9---9-9---9-9-99---9-9-99---9--9--9---|
A|-7---7-7--5--7\---5---5-5---5-5/---9---9-9---9-9-99---9-9-99---9--9--9---|
E|-5---5-5--5--5\---3---3-3---3-3/---7---7-7---7-7-77---7-7-77---7--7--7---|

e|-------------------------------------------------------------------------|
B|-------------------------------------------------------------------------|
G|----------7--------------------------------------------------------------|
D|-7---7-7--7--7\---5---5-5---5-5/---9---9-9---9-9-9----9-9-9----9-9-------|
A|-7---7-7--5--7\---5---5-5---5-5/---9---9-9---9-9-9----9-9-9----9-9-------|
E|-5---5-5--5--5\---3---3-3---3-3/---7---7-7---7-7-7----7-7-7----7-7-------|

[Verse 2]
e|-------------------------------------------------------9------9------9---|
B|---------------------------------10---10---10----------------------------|
G|------11------------11--------------11---11---11-------------------------|
D|-9-------11---9-9-9----11---9--------------------------------------------|
A|-------------------------------------------------------------------------|
E|-------------------------------------------------------------------------|

e|-------------------------------------------------------------------------|
B|------------------------------------10----------------10-----------------|
G|-----11-------------11-----------------------11------------------11\-----|
D|-9-------11---9-9-9----11---9--------------------------------------------|
A|-------------------------------------------------------------------------|
E|-------------------------------------------------------------------------|

1st Time
e|---------------------------------------------------9999---9--------------|
B|---------------------------------------------------9999---9--------------|
G|---------------------------7----7----7------7------9999---9------7-------|
D|-x-x---x-x---x-x---x-x-----7----7----7------7------7777---7------7-------|
A|-x-x---x-x---x-x---x-x-----5----5----5------5------7777---7------5-------|
E|-x-x---x-x---x-x---x-x-----5----5----5------5------7777---7------5-------|

e|---------------------------------------------------9999---9------9-9-9---|
B|---------------------------------------------------9999---9------9-9-9---|
G|---------------------------7----7----7------7------9999---9------9-9-9---|
D|-x-x---x-x---x-x---x-x-----7----7----7------7------7777---7------7-7-9---|
A|-x-x---x-x---x-x---x-x-----5----5----5------5------7777---7------7-7-7---|
E|-x-x---x-x---x-x---x-x-----5----5----5------5------7777---7------7-7-7---|

e|-------------------------------------------------------------------------|
B|---------------------------------10---10---10---------10---10---10-------|
G|------11------------11--------------11---11---11---------11---11---11\---|
D|-9-------11---9-9-9----11---9--------------------------------------------|
A|-------------------------------------------------------------------------|
E|-------------------------------------------------------------------------|

[Chorus]
e|-------------------------------------------------------------------------|
B|-------------------------------------------------------------------------|
G|----------7--------------------------------------------------------------|
D|-7---7-7--7--7\---5---5-5---5-5/---9---9-9---9-9-99---9-9-99---9--9--9---|
A|-7---7-7--5--7\---5---5-5---5-5/---9---9-9---9-9-99---9-9-99---9--9--9---|
E|-5---5-5--5--5\---3---3-3---3-3/---7---7-7---7-7-77---7-7-77---7--7--7---|

e|-------------------------------------------------------------------------|
B|-------------------------------------------------------------------------|
G|----------7--------------------------------------------------------------|
D|-7---7-7--7--7\---5---5-5---5-5/---9---9-9---9-9-9----9-9-9----9-9-------|
A|-7---7-7--5--7\---5---5-5---5-5/---9---9-9---9-9-9----9-9-9----9-9-------|
E|-5---5-5--5--5\---3---3-3---3-3/---7---7-7---7-7-7----7-7-7----7-7-------|

Bass Solo (No guitar)

[Bridge]
e|----------|
B|----------|
G|-3-3-3-3--|
D|-4-4-4-4--|
A|-4-4-4-4--|
E|-2-2-2-2--|
Play 16 times (listen to the song)

[Chorus]
e|-------------------------------------------------------------------------|
B|-------------------------------------------------------------------------|
G|----------7--------------------------------------------------------------|
D|-7---7-7--7--7\---5---5-5---5-5/---9---9-9---9-9-99---9-9-99---9--9--9---|
A|-7---7-7--5--7\---5---5-5---5-5/---9---9-9---9-9-99---9-9-99---9--9--9---|
E|-5---5-5--5--5\---3---3-3---3-3/---7---7-7---7-7-77---7-7-77---7--7--7---|

e|-------------------------------------------------------------------------|
B|-------------------------------------------------------------------------|
G|----------7--------------------------------------------------------------|
D|-7---7-7--7--7\---5---5-5---5-5/---9---9-9---9-9-9----9-9-9----9-9-------|
A|-7---7-7--5--7\---5---5-5---5-5/---9---9-9---9-9-9----9-9-9----9-9-------|
E|-5---5-5--5--5\---3---3-3---3-3/---7---7-7---7-7-7----7-7-7----7-7-------|

e|-------------------------------------------------------------------------|
B|-------------------------------------------------------------------------|
G|----------7--------------------------------------------------------------|
D|-7---7-7--7--7\---5---5-5---5-5/---9---9-9---9-9-99---9-9-99---9--9--9---|
A|-7---7-7--5--7\---5---5-5---5-5/---9---9-9---9-9-99---9-9-99---9--9--9---|
E|-5---5-5--5--5\---3---3-3---3-3/---7---7-7---7-7-77---7-7-77---7--7--7---|

e|-------------------------------------------------------------------------|
B|-------------------------------------------------------------------------|
G|----------7--------------------------------------------------------------|
D|-7---7-7--7--7\---5---5-5---5-5/---9---9-9---9-9-9----9-9-9----9-9----9--|
A|-7---7-7--5--7\---5---5-5---5-5/---9---9-9---9-9-9----9-9-9----9-9----7--|
E|-5---5-5--5--5\---3---3-3---3-3/---7---7-7---7-7-7----7-7-7----7-7----7--|



************************************

| x  Dead note
| /  Slide up
| \  Slide down

************************************

            
            
Suggest correction
Creating personal tab
Creating personal tab
You can edit any tab online and save it as your Personal.

You can edit, replace or remove any tab part or add personal notes – all changes will be seen only by you.

Personal tabs can be accessed anytime from any device, even offline.
Learn more »
comments
print report bad tab
24 comments total. Showing first comments.
+3 reply
LestPaul 40 Jan 04, 2006 05:01 AM

Excellent tab, man! Sounds just like it's supposed to... You can read/play right along while listening to the track...

+3 reply
denise- 10 Mar 05, 2006 09:32 AM

nice simple easy to read tab..like they should be!
nice one anto!

+2 reply
Igg lockwood 10 Apr 16, 2006 05:16 PM

very nice bro tab some more songs this is great easy to read

guest
Wanna post a correction for this tab? Suggest correction