Oops, an error
Loading. Please wait.

Get Up And Jump bass

version 4
version 4

Whole song

Interactive

160 views 1 this week
no commentswrite comment
1 2 3 4 5
2 more votes to show rating
add to favorites
×
Save as Personal and add changes to this tab that will be seen only by you. Learn more ›
×
You can save this tab as Personal to edit and correct it or add notes. All changes will be seen only by you. Learn more »
launch autoscroll
font size
0
reset
guitar tuner
edit
Autoscroll
slow
fast
+/-
esc
set tempo
stop
Difficulty
intermediate
-------------------------------------------------------------------------------
                   Get Up And Jump - Red Hot Chili Peppers
-------------------------------------------------------------------------------
Tabbed by: SonnyDaxter
E-mail: sonnybassmv@gmail.com

Tuning: EADG

 Intro/Outro
G|----------------6-6-6-6--------------------------6-6-6-6-6-6-6-6-----------|
D|-2------------------------------2------------------------------------------|
A|---------4---5--------------------------4---5-5----------------------------|
E|---0-0-3--------------------------0-0-3------------------------------------|

 
 Slap Groove (Thumb slap on E and A string, pop on D ang G string)
G|-------------3-----------3---3h4---| |-----------------------------------|
D|-------5-----------5---------------| |-------5-----3-----5-----3---3h5---|
A|-----------------------------------| |-----------------------------------|
E|-0-3-----x-x---x-x---x-x---x-------| |-0-3-----x-x---x-x---x-x---x-------|

G|-----------------------------------|
D|-------5-----3-----2-----2---2h3---|  (Listen closely to the song to comprehend)
A|-----------------------------------|  (when are the changes and how many times ) 
E|-0-3-----x-x---x-x---x-x---x-------|  (you should repeat each pattern.         )
                                        

 Chorus
G|-----------------------------------------------------------7---7---5-------| 
D|---5-5-5-5------5-5-5-5------5-5-5-5------5-5-5-5--------------------------|
A|---------------------------------------------------------x---x---x---------| (Thumb slap on dead notes and) 
E|-5------------5------------5------------5----------------------------------| (pop on 7-7-5, pretty simple.)

G|---------------------------------------------------------------------------|
D|---5-5-5-5------5-5-5-5------5-5-5-5------5-5-5-5--------------------------|
A|---------------------------------------------------------------------------|
E|-5------------5------------5------------5----------------------------------|


 |Slap Groove|


 |Chorus| 


 Bridge
G|-----------------------------------------------------------------------------|
D|---5-5-5-5--2---------5-5-5-5--2---------5-5-5-5--2---------5-5-5-5--2-------|
A|-----------------------------------------------------------------------------|
E|-5------------0-3-4-5------------0-3-4-5------------0-3-4-5------------0-3-4-| 

G|-----------------------------------------------------------------------------|
D|---5-5-5-5--2---------5-5-5-5--2---------5-5-5-5--2---------5-5-5-5----------|
A|-----------------------------------------------------------------------------|
E|-5------------0-3-4-5------------0-3-4-5------------0-3-4-5------------------| 


|Slap Groove|


|Intro/Outro|



| /  slide up
| \  slide down
| h  hammer-on
| p  pull-off
| ~  vibrato
| +  harmonic
| x  dead note
===============================================================================

            
            
Suggest correction
Creating personal tab
Creating personal tab
You can edit any tab online and save it as your Personal.

You can edit, replace or remove any tab part or add personal notes – all changes will be seen only by you.

Personal tabs can be accessed anytime from any device, even offline.
Learn more »
Give kudos to tab author, rate the tab!
1 2 3 4 5
comments
print report bad tab
guest
Wanna post a correction for this tab? Suggest correction