Oops, an error
Loading. Please wait.

Gong Li chords

version 1
version 1

Whole song

Interactive

9,432 views 18 this week
3 commentsread comments
1 2 3 4 5
x 4
add to favorites
×
Save as Personal and add changes to this tab that will be seen only by you. Learn more ›
×
You can save this tab as Personal to edit and correct it or add notes. All changes will be seen only by you. Learn more »
launch autoscroll
font size
0
reset
transpose
0
reset
display chords
guitar tuner
edit
Autoscroll
slow
fast
+/-
esc
set tempo
stop
Difficulty
intermediate
Strumming
There is no strumming pattern for this song yet. and get +5 IQ
Gong Li is a fantastic B-Side by the Red Hot Chili Peppers.

I've seen a few tabs on the site, and one came very close, though was still off pitch 
a bit. That bass-y note is an open E, the whole song is in the key of E.

It sounds 100% to me, but after all, this is my first try at tabbing. I also tabbed this 
an acoustic. See chord shape chart below the song. I really don't care for the credit, 
all about the music love. Hope this helped someone.

INTRO [ Repeat Four Times ]
e|--------------------------------------------------------------------------|
B|--------------------------------------------------------------------------|
G|------------------99------------------13-13-12-12-9-----------------99----|
D|-------9--------9---11-------9-------9--------------------9-------9---11--|
A|---9h11-----9h11---------9h11----9h11-----------------9h11----9h11--------|
E|-0--------0-------------0-------0--------------------0-------0------------|

e|--------------------------------------------------------------------------|
B|---------12-12------------------------------------------------------------|
G|---------------13-13------------------------------------------------------|
D|-------9-------------14---------------------------------------------------|
A|---9h11-------------------------------------------------------------------|
E|-0------------------------------------------------------------------------|


C#m         B       E
Some people say you hate me,
B               A          E
I don't believe it's true, things that you're going through
C#m         B       E
Some people say you hate me,
B               A         C#m
I don't believe it's you, things that you're going through,
C#m         B       E
Some people said a prayer for,
B                A        E
The one you want to live, the eyes that once were his
C#m         B       E
Some people said a prayer for,
B                A        C#m
The way you want to live, the eyes you want to give


[ Repeat Intro Riff Four Times ]


C#m         B       E
Some people say you played me,
B                A         E
I don't care if it's true, I'm waiting here for you,
C#m         B       E
Some people say you made it,
B                A        C#m
I'm not afraid to know, when things are getting low
C#m         B       E
Some people say you hate me,
B                A         E
I don't believe it's true, things that you're going through
C#m         B       E
Some people say you hate me,
B                A        C#m
I don't believe it's you, things that you're going through

OUTRO [ Repeat Four Times, on fourth time add the bracketed section of the last bar ]

e|--------------------------------------------------------------------------|
B|--------------------------------------------------------------------------|
G|------------------99------------------13-13-12-12-9-----------------99----|
D|-------9--------9---11-------9-------9--------------------9-------9---11--|
A|---9h11-----9h11---------9h11----9h11-----------------9h11----9h11--------|
E|-0--------0-------------0-------0--------------------0-------0------------|

e|--------------------------------------------------------------------------|
B|---------12-12------------------------------------------------------------|
G|---------------13-13------------------------------------------------------|
D|-------9-------------14[14-11-11-14]--------------------------------------|
A|---9h11-------------------------------------------------------------------|
E|-0------------------------------------------------------------------------|
**End on E and let ring


CHORD SHAPES
     C#m     B     E    A
e|----9------7-----7----5---------------------------------------------------|
B|----9------7-----9----5---------------------------------------------------|
G|----9------8-----9----6---------------------------------------------------|
D|----11-----9-----9----7---------------------------------------------------|
A|----11-----9-----7----7---------------------------------------------------|
E|----x------x-----x----x---------------------------------------------------|

            
            
Suggest correction
Creating personal tab
Creating personal tab
You can edit any tab online and save it as your Personal.

You can edit, replace or remove any tab part or add personal notes – all changes will be seen only by you.

Personal tabs can be accessed anytime from any device, even offline.
Learn more »
comments
print report bad tab
3 comments total.
0 reply
Jaz. 10 Dec 18, 2009 06:15 AM

So, I posted up this tab last night, and I messed one thing up: The interlude between the verses is played THREE times, not four. My bad.

0 reply
AndreBracisievi 10 Feb 18, 2013 01:56 PM

best tab of this song!!!

0 reply
rjjena 1,501 Nov 14, 2013 06:54 AM

It goes like this. 13-13-11-11-9 (not -12-12-)

e|--------------------------------------------------------------------------|
B|--------------------------------------------------------------------------|
G|------------------99------------------13-13-11-11-9-----------------99----|
D|-------9--------9---11-------9-------9--------------------9-------9---11--|
A|---9h11-----9h11---------9h11----9h11-----------------9h11----9h11--------|
E|-0--------0-------------0-------0--------------------0-------0------------|

guest
Wanna post a correction for this tab? Suggest correction