Oops, an error
Loading. Please wait.

Ill Be Your Domino tab

8,152 views 3 this week
8 commentsread comments
1 2 3 4 5
x 7
add to favorites
×
Save as Personal and add changes to this tab that will be seen only by you. Learn more ›
×
You can save this tab as Personal to edit and correct it or add notes. All changes will be seen only by you. Learn more »
launch autoscroll
font size
0
reset
how to read this tab
guitar tuner
edit
Autoscroll
slow
fast
+/-
esc
set tempo
stop
-------------------------------------------------------------------------------------------------------
                              I'LL BE YOUR DOMINO - Red Hot Chili Peppers
-------------------------------------------------------------------------------------------------------
Tabbed by: Brenton Chattin a.k.a chatlo77
Email: annihilative1@hotmail.com

Tuning: Standard (EADGBe)

Guitar 2 is basically improvising the entire song in F minor

0:01
e|-15-15-15-15-15-15-15-15-|
B|-16-16-16-16-16-16-16-16-|
G|-14-14-14-14-14-14-14-14-|
D|-------------------------|
A|-------------------------|
E|-------------------------|

Then...

Intro
e|---------------------------------------------------------------------------|
B|---------------------------------------------------------------------------|
G|---------------------------------------------------------------------------|
D|-------------------------------------------------------------13------------|
A|--15-----13-15-------15--------13-15------13-15-----13-15-13----13-15------|
E|---------------------------------------------------------------------------|

Verse 1 - 0:19
e|---------------------------------------------------------------------------|
B|---------------------------------------------------------------------------|
G|---------------------------------------------------------------------------|
D|---------------------------------------------------------------------------|
A|--15-----13-15-------15--------13-15------13-15-----13-15-13-15------------|
E|---------------------------------------------------------------------------|

Bridge - 0:36
e|---------------------------------------------------------------------------|
B|--------16--------------16-----------16----------18--18-16-----------------|
G|--14/15------14-14---15------14-14/15------14-14---------------------------| x3
D|---------------------------------------------------------------------------|
A|---------------------------------------------------------------------------|
E|---------------------------------------------------------------------------|

e|-------------------------------------------15-15-15-15-15-15-15-15-15-15---|
B|--------16--------------16------------16---16-16-16-16-16-16-16-16-16-16---|
G|--14/15------14-14---15------14-14/15------14-14-14-14-14-14-14-14-14-14---|
D|---------------------------------------------------------------------------|
A|---------------------------------------------------------------------------|
E|---------------------------------------------------------------------------|

Verse 2 - 0:55
Guitar 2
e|---------------------------------------------------------------------------|
B|---------------------------------------------------------------------------|
G|---------------------------------------------------------------------------|
D|---------------------------------------------------------------------------|
A|--15-----13-15-------15--------13-15------13-15-----13-15-13-15------------|
E|---------------------------------------------------------------------------|

Guitar 1
e|---------------------------------------------------------------------------|
B|---------------------------------------------------------------------------|
G|--15/17--17--15--17-15-----------------------------------------------------| x3
D|-----------------------15-13--15-15-15--13--15b----------------------------|
A|------------------------------------------------15-------------------------|
E|---------------------------------------------------------------------------|

e|---------------------------------------------------------------------------|
B|----------------------------------------16--13-----------------------------|
G|--15/17--17--15--17-15------------13/15------------------------------------|
D|-----------------------15-13--15-----------------15p13---------------------|  
A|--------------------------------------------------------15~----------------|
E|---------------------------------------------------------------------------|

Bridge - 1:12
e|---------------------------------------------------------------------------|
B|--------16--------------16-----------16----------18--18-16-----------------|
G|--14/15------14-14---15------14-14/15------14-14---------------------------| x3
D|---------------------------------------------------------------------------|
A|---------------------------------------------------------------------------|
E|---------------------------------------------------------------------------|

e|-------------------------------------------15-15-15-15-15-15-15-15-15-15---|
B|--------16--------------16------------16---16-16-16-16-16-16-16-16-16-16---|
G|--14/15------14-14---15------14-14/15------14-14-14-14-14-14-14-14-14-14---|
D|---------------------------------------------------------------------------|
A|---------------------------------------------------------------------------|
E|---------------------------------------------------------------------------|

Chorus - 1:30
e|---------------------------------------------------------------------------|
B|--9--9--x-x-11-x-11-x-11-11-11-x-x-13-13-x-x-11-11-x-9--9--9---------------|
G|--10-10-x-x-12-x-12-x-12-12-12-x-x-13-13-x-x-12-12-x-10-10-10--------------| x4
D|--10-10-x-x-12-x-12-x-12-12-12-x-x-13-13-x-x-12-12-x-10-10-10--------------|
A|---------------------------------------------------------------------------|
E|---------------------------------------------------------------------------|

Post Chorus - 1:48
e|---------------------------------------------------------------------------|
B|---------------------------------------------------------------------------|
G|--------17-----------------------------------------------------------------|
D|--15/17-------17-15-13--13h15p13----13-15--13-15-15-13h15p13---------------|
A|---------------------------------15--------------------------15------------|
E|---------------------------------------------------------------------------|

e|---------------------------------------------------------------------------|
B|---------------------------------------------------------------------------|
G|---------------------------------------------------------------------------|
D|--13--15-15-15--15-13---13-15--13---15--15b--15p13~------------------------|
A|---------------------------------------------------------------------------|
E|---------------------------------------------------------------------------|

Verse 3 - 1:57
e|---------------------------------------------------------------------------|
B|---------------------------------------------------------------------------|
G|---------------------------------------------------------------------------|
D|---------------------------------------------------------------------------|
A|--15-----13-15-------15--------13-15------13-15-----13-15-13-15------------|
E|---------------------------------------------------------------------------|

Bridge - 2:15
e|---------------------------------------------------------------------------|
B|--------16--------------16-----------16----------18--18-16-----------------|
G|--14/15------14-14---15------14-14/15------14-14---------------------------| x3
D|---------------------------------------------------------------------------|
A|---------------------------------------------------------------------------|
E|---------------------------------------------------------------------------|

e|-------------------------------------------15-15-15-15-15-15-15-15-15-15---|
B|--------16--------------16------------16---16-16-16-16-16-16-16-16-16-16---|
G|--14/15------14-14---15------14-14/15------14-14-14-14-14-14-14-14-14-14---|
D|---------------------------------------------------------------------------|
A|---------------------------------------------------------------------------|
E|---------------------------------------------------------------------------|

Chorus - 2:33
e|---------------------------------------------------------------------------|
B|--9--9--x-x-11-x-11-x-11-11-11-x-x-13-13-x-x-11-11-x-9--9--9---------------|
G|--10-10-x-x-12-x-12-x-12-12-12-x-x-13-13-x-x-12-12-x-10-10-10--------------| x4
D|--10-10-x-x-12-x-12-x-12-12-12-x-x-13-13-x-x-12-12-x-10-10-10--------------|
A|---------------------------------------------------------------------------|
E|---------------------------------------------------------------------------|

Guitar Solo - 2:50
Guitar 1
e|---------------------------------------------------------------------------|
B|---------------------------------------------------------------------------|
G|---------------------------------------------------------------------------|
D|--8h10p8h10p8h10p8--------12b---10---15b17r15-13h15------------------------|
A|---------------------------------------------------------------------------|
E|---------------------------------------------------------------------------|

e|---------------------------------------------------------------------------|
B|---------------------------------------------------------------------------|
G|--------15-17--17-17-17-17-17-17\10--------17--19-20--20b--17~-------------|
D|--15/17--------------------------------------------------------------------|
A|---------------------------------------------------------------------------|
E|---------------------------------------------------------------------------|

e|---------------------------------------------------------------------------|
B|---------------------------------------------------------------------------|
G|--------------------17--------17--------17---------------------------------|
D|--15p13-15----15/17-----15/17-----15/17------------------------------------|
A|---------------------------------------------------------------------------|
E|---------------------------------------------------------------------------|

Guitar 2
e|--8-8-x-x-8-x-8-x-8-8-x-x-8-8-x-x-8-8-x-8-8--------------------------------|
B|--8-8-x-x-8-x-8-x-8-8-x-x-8-8-x-x-8-8-x-8-8--------------------------------|
G|--8-8-x-x-8-x-8-x-8-8-x-x-8-8-x-x-8-8-x-8-8--------------------------------| x4 (variations
D|---------------------------------------------------------------------------|     are missing)
A|---------------------------------------------------------------------------|
E|---------------------------------------------------------------------------|

Bridge - 3:17
e|---------------------------------------------------------------------------|
B|--------16--------------16-----------16----------18--18-16-----------------|
G|--14/15------14-14---15------14-14/15------14-14---------------------------| x3
D|---------------------------------------------------------------------------|
A|---------------------------------------------------------------------------|
E|---------------------------------------------------------------------------|

e|-------------------------------------------15-15-15-15-15-15-15-15-15-15---|
B|--------16--------------16------------16---16-16-16-16-16-16-16-16-16-16---|
G|--14/15------14-14---15------14-14/15------14-14-14-14-14-14-14-14-14-14---|
D|---------------------------------------------------------------------------|
A|---------------------------------------------------------------------------|
E|---------------------------------------------------------------------------|

Chorus - 3:34
e|---------------------------------------------------------------------------|
B|--9--9--x-x-11-x-11-x-11-11-11-x-x-13-13-x-x-11-11-x-9--9--9---------------|
G|--10-10-x-x-12-x-12-x-12-12-12-x-x-13-13-x-x-12-12-x-10-10-10--------------| x4
D|--10-10-x-x-12-x-12-x-12-12-12-x-x-13-13-x-x-12-12-x-10-10-10--------------|
A|---------------------------------------------------------------------------|
E|---------------------------------------------------------------------------|


*************************

| b  bend
| r  release
| /  slide up
| \  slide down
| h  hammer-on
| p  pull-off
| ~  vibrato
| +  harmonic
| x  Mute note

*************************

            
            
Suggest correction
Creating personal tab
Creating personal tab
You can edit any tab online and save it as your Personal.

You can edit, replace or remove any tab part or add personal notes – all changes will be seen only by you.

Personal tabs can be accessed anytime from any device, even offline.
Learn more »
comments
print report bad tab
8 comments total. Showing first comments.
+1 reply
R_H_C_P 200 Mar 31, 2007 10:28 AM

Thankyou kind sir, what a funkaliscious song.
The wahing! Wow.

0 reply
chatlo77 183 Mar 31, 2007 03:43 PM

no probs man... i think mine is the first tab on the net... i hope people dont copy paste it as their own.

+1 reply
iddojohn 10 May 18, 2007 07:42 PM

dude this tab is perfect...i had already figured it out before this tab but there were some parts i couldn't get. thanks a lot bud! this is a perfect tab

guest
You may want to rate the tab now too:
select rating
Wanna post a correction for this tab? Suggest correction