Oops, an error
Loading. Please wait.

Nobody Weird Like Me bass

version 1
version 1

Whole song

Interactive

22,165 views 87 this week
5 commentsread comments
1 2 3 4 5
x 10
add to favorites
×
Save as Personal and add changes to this tab that will be seen only by you. Learn more ›
×
You can save this tab as Personal to edit and correct it or add notes. All changes will be seen only by you. Learn more »
launch autoscroll
font size
0
reset
guitar tuner
edit
Autoscroll
slow
fast
+/-
esc
set tempo
stop
Author
Difficulty
Q=190(very fast)

*all notes on the D string are slapped and all notes on the G string are popped(i dont 
if the interlude is though)((its your call))

INTRO:
G|------5---7------5---7-|-----5---7---5---5---7---| X 3
D|-0--0---0---0--0---0---|0--0---0---0---0---0----O|
A|-----------------------|------------------------O|
E|-----------------------|-------------------------|
   Q  e t t t q  e t t t  q  e t t t t t t t t t
G|------5---7------5---7-|----12-12b13---\\---------|
D|-0--0---0---0--0---0---|-0------------------------|
A|-----------------------|--------------------------|
E|-----------------------|--------------------------|
   q  e t t t q  e t t t   q   t  t h
After intro and verse:
G|------5---7------5---7---| X 8 (after intro and verse are 8 each)
D|-0--0---0---0--0---0----O|
A|------------------------O|
E|-------------------------|
   q  e t t t q  e t t t

CHORUS:
G|----|----|----|----|----|----|-------|
D|----|----|----|----|----|----|-------|
A|-3--|----|-5--|-3--|----|----|-------|
E|----|-0--|----|----|-0--|-3--|-5-----|
   w    w    w    w    w    w    w
Variation:
G|------9---9------9---9----|
D|-------------------------O|
A|-7--7---7---7--7---7-----O|
E|--------------------------|
   q  e t t t q  e t t t
Interlude:
G|-----10-------11--|--------12--------13---|
D|------------------|-----------------------|
A|-8--8-----9--9----|-10--10----11--11------|
E|------------------|-----------------------|
   q  e q   q  e q    q   e  q  q   e  q
G|------------------14-12-----------------| X 4
D|O--------------12-------14-12----------O|
A|O--------12-14----------------14-12----O|
E|-10--10---------------------------------|
   q   e   t  t  t  t  t  t  t  t  t
OUTRO:
G|----| X till the end
D|---O|
A|-5-O|
E|----|

just piece it together (sorry)

Q=quarter note
e=eighth note
w=whole note
h=half note
t=triplet

Have fun:):):)

            
            
Suggest correction
Creating personal tab
Creating personal tab
You can edit any tab online and save it as your Personal.

You can edit, replace or remove any tab part or add personal notes – all changes will be seen only by you.

Personal tabs can be accessed anytime from any device, even offline.
Learn more »
comments
print report bad tab
5 comments total. Showing first comments.
0 reply
j.p.j. II 62 Jul 13, 2007 10:26 AM

i forgot to add in the slapping and popping, all open notes on the D string are slapped

0 reply
j.p.j. II 62 Jul 13, 2007 10:27 AM

i dont think the interlude is slapped or popped but ill let it be your call

0 reply
greenproject 103 Sep 27, 2008 12:36 PM

The Variation lick sounds more like...
G|-----7---9---7---7---9-|-----7---9---7---7---9-| x2
D|-----------------------|-----------------------|
A|7--7---7---7---7---7---|7--7---7---7---7---7---|
E|-----------------------|-----------------------|

guest
You may want to rate the tab now too:
select rating
Wanna post a correction for this tab? Suggest correction