Oops, an error
Loading. Please wait.
We have an official Otherside tab made by UG professional guitarists. Check out the tab »
×
37,675 views 30 this week
2 commentsread comments
1 2 3 4 5
x 13
add to favorites
×
Save as Personal and add changes to this tab that will be seen only by you. Learn more ›
×
You can save this tab as Personal to edit and correct it or add notes. All changes will be seen only by you. Learn more »
launch autoscroll
font size
0
reset
how to read this tab
guitar tuner
backing track
0:00
0:00
edit
Autoscroll
slow
fast
+/-
esc
set tempo
stop
e|--------------------------| e|---------------------------------|
B|--------------------------| B|---------------------------------|
G|--------------------------| G|---------------------------------|
D|--------7-7-9-7-5---------| D|--------7-7-9-7-5----------------|
A|--7-7-7----------7--5-5-5-| A|--7-7-7-----------7--7-7-7-5-5-5-|
E|--------------------------| E|---------------------------------|

e|-------------------------------| e|-----------------------------|
B|-------------------------------| B|-----------------------------|
G|-------------------------------| G|-----------------------------|
D|--------7-7-9-7-5--------------| D|--------7-7-7/14-14-14-9-9-9-|
A|-7-7-7-7---------7-7-7-7-5-5-5-| A|-7-7-7-7---------------------|
E|-------------------------------| E|-----------------------------|

e|-----8---------------15-|
B|-----------------12-----|
G|------------------------| 
D|------------------------|
A|------------------------|
E|-5--5--5-5/12-12--------|(x3)

e|---3---------5------------------------|
B|---3---------5------------------------|
G|---4---------6------------------------|
D|---5---------7------------------------|
A|---5---------7------------------------|
E|---3---------5------------------------|

e|-----8---------------15-|
B|-----------------12-----|
G|------------------------|
D|------------------------|
A|------------------------|
E|-5--5--5-5/12-12--------|(x3)

e|---3----5-----3----5-----3----5------|
B|---3----5-----3----5-----3----5------|
G|---4----6-----4----6-----4----6------|
D|---5----7-----5----7-----5----7------|
A|---5----7-----5----7-----5----7------|
E|---3----5-----3----5-----3----5------|

e|--------------------------| e|---------------------------|
B|--------------------------| B|---------------------------|
G|--------------------------| G|---------------------------|
D|--------7-7-9-7-5---------| D|--------7-7-9-7-5----------|
A|--7-7-7----------7--5-5-5-| A|--7-7-7-----------7--5-5-5-|
E|--------------------------| E|---------------------------|

e|-------------------------------| e|-----------------------------------|
B|-------------------------------| B|-----------------------------------|
G|-------------------------------| G|-----------------------------------|
D|--------7-7-9-7-5--------------| D|--------7-7-7/14-14-14-17-17-17-17-|
A|-7-7-7-7---------7-7-7-7-5-5-5-| A|-7-7-7-7---------------------------|
E|-------------------------------| E|-----------------------------------|

e|-----8---------------15-|
B|-----------------12-----|
G|------------------------|
D|------------------------|
A|------------------------|
E|-5--5--5-5/12-12--------|(x3)

e|---3---------5----------|
B|---3---------5----------|
G|---4---------6----------|
D|---5---------7----------|
A|---5---------7----------|
E|---3---------5----------|

e|-------8---------------15-|
B|---------------------12---|
G|--------------------------|
D|--------------------------|
A|--------------------------|
E|-5-5-5--5--5-5/12-12------|

e|-----8---------------15-|
B|-----------------12-----|
G|------------------------|
D|------------------------|
A|------------------------|
E|-5--5--5-5/12-12--------|(x2)

e|---3----5-----3----5-----3----5------|
B|---3----5-----3----5-----3----5------|
G|---4----6-----4----6-----4----6------|
D|---5----7-----5----7-----5----7------|
A|---5----7-----5----7-----5----7------|
E|---3----5-----3----5-----3----5------|

e|--------------------------| e|---------------------------|
B|--------------------------| B|---------------------------|
G|--------------------------| G|---------------------------|
D|--------7-7-9-7-5---------| D|--------7-7-9-7-5----------|
A|--7-7-7----------7--5-5-5-| A|--7-7-7-----------7--5-5-5-|
E|--------------------------| E|---------------------------|

e|-------------------------------| e|-----------------------------------|
B|-------------------------------| B|-----------------------------------|
G|-------------------------------| G|-----------------------------------|
D|--------7-7-9-7-5--------------| D|--------7-7-7-5-5-5----------------|
A|-7-7-7-7---------7-7-7-7-5-5-5-| A|-7-7-7-7---------------------------|
E|-------------------------------| E|-----------------------------------|

e|--12-12-12--00-00-00---12-12-12--00-00-00-|
B|--00-00-00--12-12-12---00-00-00--12-12-12-|
G|------------------------------------------|
D|------------------------------------------|
A|------------------------------------------|
E|------------------------------------------|

e|--12-12-12--00-00-00---12-12-12--00-00-00-|
B|--00-00-00--12-12-12---00-00-00--12-12-12-|
G|------------------------------------------|
D|------------------------------------------|
A|------------------------------------------|
E|------------------------------------------|

e|--00-00-00-00--00--00-00-00-00-00-00-|
B|--10-10-10/17--17--17-17-17-19-17-17-|
G|-------------------------------------|
D|-------------------------------------|
A|-------------------------------------|
E|-------------------------------------|

e|------------------------------------|
B|--17-17-17-19-17-17-17-17-17-19-----|
G|------------------------------------|
D|------------------------------------|
A|------------------------------------|
E|------------------------------------|(and repeat at the end)



************************************

| /  Slide up

************************************

            
            
Suggest correction
Creating personal tab
Creating personal tab
You can edit any tab online and save it as your Personal.

You can edit, replace or remove any tab part or add personal notes – all changes will be seen only by you.

Personal tabs can be accessed anytime from any device, even offline.
Learn more »
comments
print report bad tab
2 comments total.
+1 reply
FireTear95-12 20 Nov 09, 2013 09:48 AM

For the intro and chorus riffs, I play it like this:
|------------------------------------------------------------------------|
|------------------------------------------------------------------------|
|------------------------------------------------------------------------|
|------------------7--7--9---7-------------------------------------------|
|-------7---7---7----------------10---7---5---5--5-----------------------|
|------------------------------------------------------------------------|

And so on, so forth, but that is just me. The A string at the tenth fret produces the same pitch as the D string at the fifth fret, but I feel that the A string route is easier, feels more fluid, if you know what I mean. Great tab though, definitely worthy of 5-stars. Nicely done, keep tabbing, and uphold the faith.

+2 reply
kleist88 10 Aug 29, 2015 09:25 AM

E|--00-00-00-00--00--00-00-00-00-00-00-|
B|--10-10-10/17--17--17-17-17-20-17-17-|
G|-------------------------------------|
D|-------------------------------------|
A|-------------------------------------|
E|-------------------------------------|

at the end, i believe it is supposed to be 20th fret instead of 19th.

guest
You may want to rate the tab now too:
select rating
Wanna post a correction for this tab? Suggest correction