Oops, an error
Loading. Please wait.

Ready Made tab

version 2
version 2

Whole song

Video

26,995 views 12 this week
8 commentsread comments
1 2 3 4 5
x 7
add to favorites
×
Save as Personal and add changes to this tab that will be seen only by you. Learn more ›
×
You can save this tab as Personal to edit and correct it or add notes. All changes will be seen only by you. Learn more »
launch autoscroll
font size
0
reset
how to read this tab
guitar tuner
edit
Autoscroll
slow
fast
+/-
esc
set tempo
stop
Author
Difficulty
Red Hot Chili Peppers
"Readymade", From "Stadium Arcadium"

Note:  This song is ranked advanced.  Most of the riffs in the song are actually 
but the solo is extremely fast played and advanced (16 notes per second including the 
 Anyway... Enjoy!

Intro:

e------------------------------------------------------|
B--------------------------10/12-----------------------|
G------------------------------------------------------|
D------------------------------------------------------|
A------------------------------------------------------|
E------------------------------------------------------|


Pre-Chorus:
e----------------------------------------------------------------------|
B----------------------------------------------------------------------|
G----------------------------------------------------------------------|
D---------5---------------5---------------5--------------------5-------|
A-5h7-7-5---7-5-7-5h7-7-5---7-5-7-5h7-7-5---7-5-7--------5-6-7---------|
E-------------------------------------------------4-5-6-7--------------|
(x4)
"Readymade, Readymade
steady as the rythm rolls..."

Verse:
e----------------------------------------------------------------------|
B----------------------------------------------------------------------|
G---------4---------------4---------------4---------------------4------|
D-4h6-6-4---6-4-6-4h6-6-4---6-4-6-4h6-6-4---6-4-6---------4-5-6--------|
A-------------------------------------------------3-4-5-6--------------|
E----------------------------------------------------------------------|
(x2)
"I got a cousin makin' beat deep down in Arizona"

Pre-Chorus:
e----------------------------------------------------------------------|
B----------------------------------------------------------------------|
G----------------------------------------------------------------------|
D---------5---------------5---------------5--------------------5-------|
A-5h7-7-5---7-5-7-5h7-7-5---7-5-7-5h7-7-5---7-5-7--------5-6-7---------|
E-------------------------------------------------4-5-6-7--------------|
(x2)

Chorus:
e------------------------------------------------------|
B------------------------------------------------------|
G------------------------------------------------------|
D------------------------------------------------------|
A-5-5-5-5-5--7-7-7-7-7---------------------------------|
E-3-3-3-3-3--5-5-5-5-5---------------------------------|
"And if I give to you my second sight
You got it"

e------------------------------------------------------|
B------------------------------------------------------|
G------------------------------------------------------|
D-----------------5------------------------------------|
A---5-6-7-7---5-7-----5-7------------------------------|
E-7---------7-------7-----5b-5r-3----------------------|

e------------------------------------------------------|
B------------------------------------------------------|
G------------------------------------------------------|
D-----------5------------------------------------------|
A-7-7---5-7-----5-7------------------------------------|
E-----7-------7-----5b-5-3-----------------------------|

e------------------------------------------------------|
B------------------------------------------------------|
G------------------------------------------------------|
D------------------------------------------------------|
A-5-5-5-5-5--7-7-7-7-7---------------------------------|
E-3-3-3-3-3--5-5-5-5-5---------------------------------|
"And if I break in two, I'll stay the night
Come get it"

e------------------------------------------------------|
B------------------------------------------------------|
G------------------------------------------------------|
D-----------------5------------------------------------|
A---5-6-7-7---5-7-----5-7------------------------------|
E-7---------7-------7-----5b-5r-3----------------------|

e------------------------------------------------------|
B------------------------------------------------------|
G-----------------------7------------------------------|
D-----------5-------7h9---7-5--------------------------|
A-7-7---5-7-----5-7------------------------------------|
E-----7-------7----------------------------------------|

Pre-Chorus:
e----------------------------------------------------------------------|
B----------------------------------------------------------------------|
G----------------------------------------------------------------------|
D---------5---------------5---------------5--------------------5-------|
A-5h7-7-5---7-5-7-5h7-7-5---7-5-7-5h7-7-5---7-5-7--------5-6-7---------|
E-------------------------------------------------4-5-6-7--------------|
(x2)

Verse:
e-------------------------------------------------------------------|
B-------------------------------------------------------------------|
G-------------12h14p12-------------12h14p12-------------12h14p12----|
D-12h14-14-12----------12h14-14-12----------12h14-14-12-------------|
A-------------------------------------------------------------------|
E-------------------------------------------------------------------|

e---------------------------------------------------------|
B---------------------------------------------------------|
G----------------------12---------------------------------|
D-------------12-13-14------------------------------------|
A-11-12-13-14---------------------------------------------|
E---------------------------------------------------------|

e-------------------------------------------------------------------|
B-------------------------------------------------------------------|
G-------------14bp12---------------14bp12---------------14bp12------|
D-12h14-14-12----------12h14-14-12----------12h14-14-12-------------|
A-------------------------------------------------------------------|
E-------------------------------------------------------------------|

e---------------------------------------------------------|
B---------------------------------------------------------|
G----------------------12---------------------------------|
D-------------12-13-14------------------------------------|
A-11-12-13-14---------------------------------------------|
E---------------------------------------------------------|
"I've got a sister making babies with a Black & Decker blowtorch"

Pre-Chorus:
e----------------------------------------------------------------------|
B----------------------------------------------------------------------|
G----------------------------------------------------------------------|
D---------5---------------5---------------5--------------------5-------|
A-5h7-7-5---7-5-7-5h7-7-5---7-5-7-5h7-7-5---7-5-7--------5-6-7---------|
E-------------------------------------------------4-5-6-7--------------|
(x2)

Chorus:
e------------------------------------------------------|
B------------------------------------------------------|
G------------------------------------------------------|
D------------------------------------------------------|
A-5-5-5-5-5--7-7-7-7-7---------------------------------|
E-3-3-3-3-3--5-5-5-5-5---------------------------------|
"And if I give to you my second sight
You got it"

e------------------------------------------------------|
B------------------------------------------------------|
G------------------------------------------------------|
D-----------------5------------------------------------|
A---5-6-7-7---5-7-----5-7------------------------------|
E-7---------7-------7-----5b-5r-3----------------------|

e------------------------------------------------------|
B------------------------------------------------------|
G------------------------------------------------------|
D-----------5------------------------------------------|
A-7-7---5-7-----5-7------------------------------------|
E-----7-------7-----5b-5-3-----------------------------|

e------------------------------------------------------|
B------------------------------------------------------|
G------------------------------------------------------|
D------------------------------------------------------|
A-5-5-5-5-5--7-7-7-7-7---------------------------------|
E-3-3-3-3-3--5-5-5-5-5---------------------------------|
"And if I break in two, I'll stay the night
Come get it"

e------------------------------------------------------|
B------------------------------------------------------|
G------------------------------------------------------|
D-----------------5------------------------------------|
A---5-6-7-7---5-7-----5-7------------------------------|
E-7---------7-------7-----5b-5r-3----------------------|

e------------------------------------------------------|
B------------------------------------------------------|
G------------------------------------------------------|
D------------------------------------------------------|
A-7-7---5-7-7b-----------------------------------------|
E-----7------------------------------------------------|


Solo:
"Oh clean it up now Johnny!"

e-15p12-----15p12-15p12-----15p12-15p12------------------|
B------15p12-----------15p12-----------15p12-------------|
G--------------------------------------------------------|
D--------------------------------------------------------|
A--------------------------------------------------------|
E--------------------------------------------------------|

e-15p12-----15p12-15p12-----15p12-15p12------------------|
B------15p12-----------15p12-----------15p12-------------|
G--------------------------------------------------------|
D--------------------------------------------------------|
A--------------------------------------------------------|
E--------------------------------------------------------|

e-15p12----------15p12----------15p12----------15p12--------------|
B------15p12----------15p12----------15p12----------15p12---------|
G-----------14p12----------14p12----------14p12----------14p12----|
D-----------------------------------------------------------------|
A-----------------------------------------------------------------|
E-----------------------------------------------------------------|

e-15p12-----------------------------------------------------|
B------15p12------------------------------------------------|
G-----------14p12-------------------------------------------|
D-----------------------------------------------------------|
A-----------------------------------------------------------|
E-----------------------------------------------------------|

e-------------------------------------------------------------|
B-15p12-----15p12-15p12------15p12-15p12-----15p12-15p12------|
G------14p12-----------14p12------------14p12-----------14p12-|
D-------------------------------------------------------------|
A-------------------------------------------------------------|
E-------------------------------------------------------------|

e-------------------------------------------------------------|
B-15p12-15p12-----15p12-15p12---------------------------------|
G------------14p12-----------14p12----------------------------|
D-------------------------------------------------------------|
A-------------------------------------------------------------|
E-------------------------------------------------------------|

e-------------------------------------------------------------|
B--------15-12------------------------------------------------|
G-14b-14b------14-12-14-12--14b-14-12-14-12-14b-14-12-14-12---|
D-------------------------------------------------------------|
A-------------------------------------------------------------|
E-------------------------------------------------------------|

e-----------12--12-12--18-18b-18-16-18b-18-16-18-16-18b-------|
B-15b----15b----15b-------------------------------------------|
G-------------------------------------------------------------|
D-------------------------------------------------------------|
A-------------------------------------------------------------|
E-------------------------------------------------------------|

Bridge:

e---------------------------------------------------------|
B---------------------------------------------------------|
G-7-7-4---------------------------------------------------|
D-7-7-4---------------------------------------------------|
A-5-4-2------------7-7 4----------------------------------|
E------------------5-4-2----------------------------------|
(x2)

e---------------------------------------------------------|
B-0--0--0--0--0--0--0--0--0--0--0--0--0--0--0--0----------|
G-6b-6b-6b-6b-6b-6b-6b-6b-6b-6b-6b-6b-6b-6b-6b-6b---------|
D---------------------------------------------------------|
A---------------------------------------------------------|
E---------------------------------------------------------|

Pre-Chorus:
e----------------------------------------------------------------------|
B----------------------------------------------------------------------|
G----------------------------------------------------------------------|
D---------5---------------5---------------5--------------------5-------|
A-5h7-7-5---7-5-7-5h7-7-5---7-5-7-5h7-7-5---7-5-7--------5-6-7---------|
E-------------------------------------------------4-5-6-7--------------|
(x2)

Verse:
e-------------------------------------------------------------------|
B-------------------------------------------------------------------|
G-------------12h14p12-------------12h14p12-------------12h14p12----|
D-12h14-14-12----------12h14-14-12----------12h14-14-12-------------|
A-------------------------------------------------------------------|
E-------------------------------------------------------------------|

e---------------------------------------------------------|
B---------------------------------------------------------|
G----------------------12---------------------------------|
D-------------12-13-14------------------------------------|
A-11-12-13-14---------------------------------------------|
E---------------------------------------------------------|

e-------------------------------------------------------------------|
B-------------------------------------------------------------------|
G-------------14bp12---------------14bp12---------------14bp12------|
D-12h14-14-12----------12h14-14-12----------12h14-14-12-------------|
A-------------------------------------------------------------------|
E-------------------------------------------------------------------|

e---------------------------------------------------------|
B---------------------------------------------------------|
G----------------------12---------------------------------|
D-------------12-13-14------------------------------------|
A-11-12-13-14---------------------------------------------|
E---------------------------------------------------------|
"I've got a brother making trouble in the state of Caledonia"

Pre-Chorus:
e----------------------------------------------------------------------|
B----------------------------------------------------------------------|
G----------------------------------------------------------------------|
D---------5---------------5---------------5--------------------5-------|
A-5h7-7-5---7-5-7-5h7-7-5---7-5-7-5h7-7-5---7-5-7--------5-6-7---------|
E-------------------------------------------------4-5-6-7--------------|
(x2)

Chorus:
e------------------------------------------------------|
B------------------------------------------------------|
G------------------------------------------------------|
D------------------------------------------------------|
A-5-5-5-5-5--7-7-7-7-7---------------------------------|
E-3-3-3-3-3--5-5-5-5-5---------------------------------|
"And if I give to you my second sight
You got it"

e------------------------------------------------------|
B------------------------------------------------------|
G------------------------------------------------------|
D-----------------5------------------------------------|
A---5-6-7-7---5-7-----5-7------------------------------|
E-7---------7-------7-----5b-5r-3----------------------|

e------------------------------------------------------|
B------------------------------------------------------|
G------------------------------------------------------|
D-----------5------------------------------------------|
A-7-7---5-7-----5-7------------------------------------|
E-----7-------7-----5b-5-3-----------------------------|

e------------------------------------------------------|
B------------------------------------------------------|
G------------------------------------------------------|
D------------------------------------------------------|
A-5-5-5-5-5--7-7-7-7-7---------------------------------|
E-3-3-3-3-3--5-5-5-5-5---------------------------------|
"And if I break in two, I'll stay the night
Come get it"

e------------------------------------------------------|
B------------------------------------------------------|
G------------------------------------------------------|
D-----------------5------------------------------------|
A---5-6-7-7---5-7-----5-7------------------------------|
E-7---------7-------7-----5b-5r-3----------------------|

e------------------------------------------------------|
B------------------------------------------------------|
G------------------------------------------------------|
D------------------------------------------------------|
A-7-7---5-7-7b-----------------------------------------|
E-----7------------------------------------------------|

            
            
Suggest correction
Creating personal tab
Creating personal tab
You can edit any tab online and save it as your Personal.

You can edit, replace or remove any tab part or add personal notes – all changes will be seen only by you.

Personal tabs can be accessed anytime from any device, even offline.
Learn more »
comments
print report bad tab
8 comments total. Showing first comments.
0 reply
fenderbender111 184 May 04, 2007 06:54 PM

um. no. your solo is good, but there are no hammer ons in the verses. its an o.k. tab and i give you props for doing it, but it could be better. nice job tho.

-1 reply
Dev_guitar 16 May 16, 2007 08:28 PM

awesome tab 5 stars
john frusciante is a god!

0 reply
Keenan-91 82 Sep 08, 2007 03:00 AM

im sure he hammers on in the verse

guest
You may want to rate the tab now too:
select rating
Wanna post a correction for this tab? Suggest correction