Oops, an error
Loading. Please wait.
We have an official Road Trippin tab made by UG professional guitarists. Check out the tab »
×
84,722 views 69 this week
12 commentsread comments
1 2 3 4 5
x 48
add to favorites
×
Save as Personal and add changes to this tab that will be seen only by you. Learn more ›
×
You can save this tab as Personal to edit and correct it or add notes. All changes will be seen only by you. Learn more »
launch autoscroll
font size
0
reset
guitar tuner
backing track
0:00
0:00
edit
Autoscroll
slow
fast
+/-
esc
set tempo
stop
Author
Unregistered
Road Trippin' - Bass Tab

By the Red Hot Chili Peppers
>From the album Californication
Tabbed by Robert Petersson (mr.schh@post.netlink.se)

[Intro]
G|----------------5---------|
D|--------5-4-2---------5-4-|
A|----7-7-------3---3-2-----|
E|--0-----------------------|

[Verse 1] 
G|----------------5---------|
D|--------5-4-2---------5-4-|
A|----7-7-------3---3-2-----| x4
E|--0-----------------------|

G|----------------5----------|
D|--------5-4-2--------------|
A|----7-7-------3---3-2------|
E|--0-------------------3-2--|

[Bridge 1]
G|----------------------------------------------| (x2)
D|----------------------------------------------|
A|--0--0--0-0--2--2--2-2--3--3--3-3--5--5--5-5--|
E|----------------------------------------------|

[Verse 2]
G|----------------5---------|
D|--------5-4-2---------5-4-|
A|----7-7-------3---3-2-----| x3
E|--0-----------------------|

G|----------------5----------|
D|--------5-4-2--------------|
A|----7-7-------3---3-2------|
E|--0-------------------3-2--|

[Bridge 2]
G|----------------------------------------------| (x2)
D|----------------------------------------------|
A|--0--0--0-0--2--2--2-2--3--3--3-3--5--5--5-5--|
E|----------------------------------------------|

[Cello Solo]
G|-----------|
D|-----------|
A|--7--------|
E|---5-8-10--|

[Verse 3]
G|----------------5---------|
D|--------5-4-2---------5-4-|
A|----7-7-------3---3-2-----| x4
E|--0-----------------------|

G|----------------5----------|
D|--------5-4-2--------------|
A|----7-7-------3---3-2------|
E|--0-------------------3-2--|

[Bridge 3] 
G|----------------------------------------------| (x4)
D|----------------------------------------------|
A|--0--0--0-0--2--2--2-2--3--3--3-3--5--5--5-5--|
E|----------------------------------------------|

            
            
Suggest correction
Creating personal tab
Creating personal tab
You can edit any tab online and save it as your Personal.

You can edit, replace or remove any tab part or add personal notes – all changes will be seen only by you.

Personal tabs can be accessed anytime from any device, even offline.
Learn more »
comments
print report bad tab
12 comments total. Showing first comments. show 1 bad comment
0 reply
6string-sandman 10 Aug 06, 2003 08:00 PM

keep up the good work, i don't even play bass and it was easy to understand and went well.

+1 reply
Mr.Skellington 10 Feb 26, 2004 07:00 PM

Good job on the tab, Not completley correct, On the bridge, It should be
G|------------------------------------------------------
D|--7--7--7-7--9--9--9-9--10--10--10-10--12--12--12-12
A|------------------------------------------------------
E|------------------------------------------------------

guest
Wanna post a correction for this tab? Suggest correction