Oops, an error
Loading. Please wait.

Shes Only 18 tab

version 3
version 3

Whole song

Interactive

Video

1,130 views 1 this week
3 commentsread comments
1 2 3 4 5
1 last vote to show rating
add to favorites
×
Save as Personal and add changes to this tab that will be seen only by you. Learn more ›
×
You can save this tab as Personal to edit and correct it or add notes. All changes will be seen only by you. Learn more »
launch autoscroll
font size
0
reset
how to read this tab
guitar tuner
backing track
0:00
0:00
edit
Autoscroll
slow
fast
+/-
esc
set tempo
stop
Author
Difficulty
   She’s only 18 – Red Hot Chili Peppers

HELLO EVERYBODY!!!!
   
This song is 1 of the bests of the album. The solo isn’t hart to play
This is my first tab so I hope it will be good!!
For this tab use a wah for the solo and the rest and for the chorus use a distortion.

    Please rate!!!



      Intro (bass)

G-------3-------3---5--------3-------3-------|
D----3-5-5-3-3-5--5-------3-5-5-3-3-5--5-3---|
A-3h5-------5----5-------5-------5----5------|x2
E--------------------------------------------|

      verse

She’s only 18
Don't like the Rolling Stones
She took the shortcut
To being fully grown
She got the mood ring
A little sister rose
A smell of Springsteen
A pair of pantyhose

E|---------------|------------||
B|---------------|------------||
G|-------3h5-3---|-----3h5-3--||  rep 4x
D|----3h5------5-|--3h5-------||
A|---------------|------------||
E|---------------|------------||

This talking picture show
Is leaking from a silhouette
She said my man you know
It's time to get your fingers

E|-----6h8h6-6--|------6h8h6-6-||
B|--6h8-------8-|---6h8--------||
G|--------------|--------------||
D|--------------|--------------||
A|--------------|--------------||
E|--------------|--------------||
     
You hustle's busted when
You can't afford a cigarette
The last I heard from you
You were screaming "Handle It!" 

E|---------------|-----------||
B|-------3h5-3---|-----5h5-3-||
G|----3h5------5—|--3h5------||
D|---------------|-----------||
A|---------------|-----------||
        Chorus


Knock the world
Right of its feet and
Straight unto its head
Book of love
They’re only laughing after
You are dead
Fascinated
By the look of you
And what was said
Make a play
For all the brightest minds
And light will shed

E|---0----0--|---0----1--|---0---0--|---0----0--||
B|---0----0--|---0----1--|---0---0--|---0----0--||
G|---5----8--|---0----2--|---5---8--|---0----0--|| 
D|---5----8--|---5----3--|---5---8--|---5----3--||rep 1x
A|---3----6--|---5----3--|---3---6--|---5----3--||
E|---0----0--|---3----1--|---0---0--|---3----1--||
                      
 Make a play
For all the brightest minds
And light will shed

E|---0----0--|---0----2--||
B|---0----0--|---0----3--||
G|---5----8--|---5----2--||
D|---5----8--|---5----0--||
A|---3----6--|---7----0--||
E|---0----0--|---0----0--||

     Verse

E|---------------|-----------||
B|-------3h5-3---|-----5h5-3-||
G|----3h5------5—|--3h5------||
D|---------------|-----------||
A|---------------|-----------||

I heard some P-Funk
Out on the road again
To get your head shrunk
Is what I recommend
It's in your bloodline
A perfect Frankenstein
Out on the lone kind
I'm gonna make you mine

E|-----6h8h6-6--|------6h8h6-6-||
B|--6h8-------8-|---6h8--------||
G|--------------|--------------||
D|--------------|--------------||
A|--------------|--------------||
E|--------------|--------------||
     
It's understood you wrap your
Voodoo right around my neck
You got some glitter on your
Kitty at the discotheque


E|---------------|-----------||
B|-------3h5-3---|-----5h5-3-||
G|----3h5------5—|--3h5------|| note: next time you must play this:
D|---------------|-----------|| 
A|---------------|-----------||

E|---------------|---------------||
B|---------------|---------------||
G|-------3h5-3---|--5/7-4/5-3----||
D|----3h5------5-|-----------3/5-||
A|---------------|---------------||
E|---------------|---------------||



I'll put my loving in your oven
Not a head to check
The last I heard from you
You were screaming "Resurrect!"

                     Chorus

E|---0---0--|---0---1--|---0---0--|---0---0--|---0---0--|---0---2--||
B|---0---0--|---0---1--|---0---0--|---0---0--|---0---0--|---0---3--||
G|---5---8--|---0---2--|---5---8--|---0---0--|---5---8--|---5---2--||
D|---5---8--|---5---3--|---5---8--|---5---3--|---5---8--|---5---0--||
A|---3---6--|---5---3--|---3---6--|---5---3--|---3---6--|---7---0--||
E|---0---0--|---3---1--|---0---0--|---3---1--|---0---0--|---0---0--||

Note: play this trough the chorus(hear the song)

E|----|-----------|----|-----------------|----|--------------------||
B|----|-----------|----|-----------------|----|--------------------||
G|----|-----------|----|-----------------|----|-------------5-8-5~-||
D|----|-----------|----|-3/5-5-3---------|----|-4/5-8—4/5-8--------||
A|----|------1/3~-|----|--------5-3-1/3~-|----|--------------------||
E|----|---1-3-----|----|-----------------|----|--------------------||

     
                      Solo!! 
   
E|-------------------------------------------------------------|
B|-------------------------------------------------------------|
G|-------------------------------------------------------------|
D|---------1-3/5--1--3-1h3--------1-3/5--1-3-------------------|
A|----1/3---------------------1-3------------------------------|
E|-------------------------------------------------------------|

E|-------------------------------------------------------------|
B|---------------------------4b-------------6b7-4h6------------|
G|------3-5-3-5----------3-5----5------3-5---------------------|
D|--3/5--------------3/5---------------------------------------|
A|-------------------------------------------------------------|
E|-------------------------------------------------------------|

E|--------6------6-8-------------------------------------------|
B|---6/8-----8-6-----8p6/4---6-6p4--4--6/8--6--6--4------------|
G|----------------------------------5--------------------------|
D|-------------------------------------------------------------|
A|-------------------------------------------------------------|
E|-------------------------------------------------------------|

E|-------------------------------------------------------------|
B|--6-6-6-6p4--6-6p4--6-6p4--6-6p4--6-6p4----------------------|
G|-------------------------------------------------------------|
D|-------------------------------------------------------------|
A|-------------------------------------------------------------|
E|-------------------------------------------------------------|

E|------------10b11--8v------------------13b15r13b15r13b15-----|
B|--6-4-6/8-8--------------------------------------------------|
G|-------------------------------------------------------------|
D|-------------------------------------------------------------|
A|-------------------------------------------------------------|
E|-------------------------------------------------------------|

E|--13b15-13p11-13---13/15--18~~-18/15-------------------------|
B|--------------------------------------18p16--18-18-18p16-----|
G|---------------------------------------------------------17--|
D|-------------------------------------------------------------|
A|-------------------------------------------------------------|
E|-------------------------------------------------------------|

E|----------19-------------------------------------------------|
B|-16-18b19-------19r18--18/16-18-18-18-16-----17~-------------|
G|------------------------------------------17-----------------|
D|-------------------------------------------------------------|
A|-------------------------------------------------------------|
E|-------------------------------------------------------------|

                         Last Chorus 

E|---0---0--|---0---1--|---0---0--|---0---0--|---0---0--|---0---1--||
B|---0---0--|---0---1--|---0---0--|---0---0--|---0---0--|---0---1--||
G|---5---8--|---0---2--|---5---8--|---0---0--|---5---8--|---0---2--||
D|---5---8--|---5---3--|---5---8--|---5---3--|---5---8--|---5---3--||
A|---3---6--|---5---3--|---3---6--|---5---3--|---3---6--|---5---3--||
E|---0---0--|---3---1--|---0---0--|---3---1--|---0---0--|---3---1--||


Note: this is playing trough the last chorus(hear the song)


E|----------|----------|-----------------|---------------------------------|
B|-13~--13~-|-13~--13~-|--------13/16/13-|-13~-17/19-17/19—19-17-13-11/13~-|
G|----------|----------|-12--15----------|---------------------------------|
D|----------|----------|-----------------|---------------------------------|
A|----------|----------|-----------------|---------------------------------|
E|----------|----------|-----------------|---------------------------------|

E|---------------------||
B|-13~-13~--15-13~-13~-||
G|---------------------||
D|---------------------||
A|---------------------||
E|---------------------||

E|-15r18r15r18r15r18r15r18r15r18r15r18r15r18r15r18r15r18-||
B|-------------------------------------------------------||
G|-------------------------------------------------------||
D|-------------------------------------------------------||
A|-------------------------------------------------------||
E|-------------------------------------------------------||

E|--20~--20~--22~--22~-|
B|---------------------|
G|---------------------|
D|---------------------|
A|---------------------|
E|---------------------|

That’s it, have fun playing!!










            
            
Suggest correction
Creating personal tab
Creating personal tab
You can edit any tab online and save it as your Personal.

You can edit, replace or remove any tab part or add personal notes – all changes will be seen only by you.

Personal tabs can be accessed anytime from any device, even offline.
Learn more »
Give kudos to tab author, rate the tab!
1 2 3 4 5
comments
print report bad tab
3 comments total.
0 reply
METSOAD 1,632 Mar 13, 2007 07:48 AM

don't play all the strings in the chorus, it sounds weird, playing the notes tha are fretted would sound better

0 reply
genresrforposer 80 Mar 13, 2007 06:07 PM

the opening bass part which is the main part i wanted to learn seems great so good tab man.

the only thing is since ive decided to learn the rest of it as well whats meant by

5h5?

0 reply
daniel110217 31 Apr 17, 2007 03:38 AM

h= hammer on

And thanks for the compliments and corrections for this tab

have fun playing!!

guest
You may want to rate the tab now too:
select rating
Wanna post a correction for this tab? Suggest correction