Oops, an error
Loading. Please wait.

Sick Love tab

version 1
version 1

Whole song

Video

15,227 views 30 this week
3 commentsread comments
1 2 3 4 5
x 5
add to favorites
×
Save as Personal and add changes to this tab that will be seen only by you. Learn more ›
×
You can save this tab as Personal to edit and correct it or add notes. All changes will be seen only by you. Learn more »
launch autoscroll
font size
0
reset
how to read this tab
guitar tuner
backing track
0:00
0:00
edit
Autoscroll
slow
fast
+/-
esc
set tempo
stop
Author
Difficulty
[Intro]

e|-----------------------------------7-7-7-7-7-7-7-7|
B|------5-------3--3h5p3--3--7-7^-7~-5-5-5-5-5-5-5-5|
G|------5--------4-4----4----7-7^-7~-5-5-5-5-5-5-5-5|
D|0h2/4---0h2/4-------------------------------------|
A|--------------------------------------------------|
E|--------------------------------------------------|
                             slightly bend this part for out-of-tune sound
e|---------------------------------7---7---7-----------------------------------|
B|------5-------3--3h5p3h5----------8---8---8----------------------------------|
G|------5--------4-4-----------------9---9---9---------------------------------|
D|0h2/4---0h2/4----------------------------------------------------------------|
A|-----------------------------------------------------------------------------|
E|---------------------------0-x-----------------------------------------------|


[Verse]



e|-----------------------------------7-7-7-7-7-7-7-7|
B|------5-------3--3h5p3--3--7-7^-7~-5-5-5-5-5-5-5-5|
G|------5--------4-4----4----7-7^-7~-5-5-5-5-5-5-5-5|
D|0h2/4---0h2/4-------------------------------------|
A|--------------------------------------------------|
E|--------------------------------------------------|


e|---------------------------------7---7-|
B|------5-------3--3h5p3h5----------8---8|
G|------5--------4-4-----------------9---|
D|0h2/4---0h2/4--------------------------|
A|---------------------------------------|
E|---------------------------0-x---------|


e|-----------------------------------7-7-7-7-7-7-7-7|
B|------5-------3--3h5p3--3--7-7^-7~-5-5-5-5-5-5-5-5|
G|------5--------4-4----4----7-7^-7~-5-5-5-5-5-5-5-5|
D|0h2/4---0h2/4-------------------------------------|
A|--------------------------------------------------|
E|--------------------------------------------------|


e|---------------------------------7---7--|
B|------5-------3--3h5p3h5----------8---8-|
G|------5--------4-4-----------------9---9|
D|0h2/4---0h2/4---------------------------|
A|----------------------------------------|
E|---------------------------0-x----------|


[Chorus]

e|---7-7-7-7-5-5-------------------------------------------7--7--7-|
B|----------------------8-10-10-12-8\7-8--------7/8---------8--8--8|
G|9~~-------------7~~7-------------------9-9/11--------------9--9--|
D|-----------------------------------------------------------------|
A|-----------------------------------------------------------------|
E|----------------------------------------------------0-x----------|

[Verse]



e|-----------------------------------7-7-7-7-7-7-7-7|
B|------5-------3--3h5p3--3--7-7^-7~-5-5-5-5-5-5-5-5|
G|------5--------4-4----4----7-7^-7~-5-5-5-5-5-5-5-5|
D|0h2/4---0h2/4-------------------------------------|
A|--------------------------------------------------|
E|--------------------------------------------------|


e|---------------------------------7---7|
B|------5-------3--3h5p3h5----------8---|
G|------5---------4-4----------------9--|
D|0h2/4---0h2/4-------------------------|
A|--------------------------------------|
E|---------------------------0-x--------|


[Chorus 2: Rhythm]

e|8--8--x--8--8--7--7---------10-10-----7-7-x-7-7-5-5-------8-8--|
B|8--8--x--8--8--8--8---10-10-10-10-----8-8-x-8-8-7-7--8--8------|
G|9--9--x--9--9--9--9---11-11-------11--7-7-x-7-7-7-7--9--9-----9|
D|10-10-x--10-10--------12-12-------12--9-9-x-9-9-----10-10----10|
A|---------------------------------------------------------------|
E|---------------------------------------------------------------|


e|5-5-x-5-5-------------10-10-----7-7-7-7-7-7-7-7-7-10|
B|5-5-x-5-5--8--8-10-10-10-10-----8-8-8-8-8-8-8-8-8-8-|
G|5-5-x-5-5--9--9-11-11------11---9-9-9-9-9-9-9-9-9-9-|
D|7-7-x-7-7-10-10-12-12------12-----------------------|
A|----------------------------------------------------|
E|------------------------------0x--------------------|


e|8--8--x--8--8--7--7---------10-10-----7-7-x-7-7-5-5-------8-8--|
B|8--8--x--8--8--8--8---10-10-10-10-----8-8-x-8-8-7-7--8--8------|
G|9--9--x--9--9--9--9---11-11-------11--7-7-x-7-7-7-7--9--9-----9|
D|10-10-x--10-10--------12-12-------12--9-9-x-9-9-----10-10----10|
A|---------------------------------------------------------------|
E|---------------------------------------------------------------|


e|5-5-x-5-5-------------10-10-----7-7-7-7-7-7-7-7-7-10|
B|5-5-x-5-5--8--8-10-10-10-10-----8-8-8-8-8-8-8-8-8-8-|
G|5-5-x-5-5--9--9-11-11------11---9-9-9-9-9-9-9-9-9-9-|
D|7-7-x-7-7-10-10-12-12------12-----------------------|
A|----------------------------------------------------|
E|------------------------------0x--------------------|



[Verse]

e|-----------------------------------7-7-7-7-7-7-7-7|
B|------5-------3--3h5p3--3--7-7^-7~-5-5-5-5-5-5-5-5|
G|------5--------4-4----4----7-7^-7~-5-5-5-5-5-5-5-5|
D|0h2/4---0h2/4-------------------------------------|
A|--------------------------------------------------|
E|--------------------------------------------------|


e|---------------------------------7---7--7|
B|------5-------3--3h5p3h5----------8---8--|
G|------5---------4-4----------------9-----|
D|0h2/4---0h2/4----------------------------|
A|-----------------------------------------|
E|---------------------------0-x-----------|


e|-----------------------------------7-7-7-7-7-7-7-7|
B|------5-------3--3h5p3--3--7-7^-7~-5-5-5-5-5-5-5-5|
G|------5--------4-4----4----7-7^-7~-5-5-5-5-5-5-5-5|
D|0h2/4---0h2/4-------------------------------------|
A|--------------------------------------------------|
E|--------------------------------------------------|


e|---------------------------------7---7-|
B|------5-------3--3h5p3h5----------8---8|
G|------5--------4-4-----------------9---|
D|0h2/4---0h2/4--------------------------|
A|---------------------------------------|
E|---------------------------0-x---------|


[Chorus]

e|---7-7-7-7-5-5-------------------------------------------7--7--7-|
B|----------------------8-10-10-12-8\7-8--------7/8---------8--8--8|
G|9~~-------------7~~7-------------------9-9/11--------------9--9--|
D|-----------------------------------------------------------------|
A|-----------------------------------------------------------------|
E|----------------------------------------------------0-x----------|



Chorus 2: Rhythm]


e|8--8--x--8--8--7--7---------10-10-----7-7-x-7-7-5-5-------8-8--|
B|8--8--x--8--8--8--8---10-10-10-10-----8-8-x-8-8-7-7--8--8------|
G|9--9--x--9--9--9--9---11-11-------11--7-7-x-7-7-7-7--9--9-----9|
D|10-10-x--10-10--------12-12-------12--9-9-x-9-9-----10-10----10|
A|---------------------------------------------------------------|
E|---------------------------------------------------------------|


e|5-5-x-5-5-------------10-10-----7-7-7-7-7-7-7-7-7-10|
B|5-5-x-5-5--8--8-10-10-10-10-----8-8-8-8-8-8-8-8-8-8-|
G|5-5-x-5-5--9--9-11-11------11---9-9-9-9-9-9-9-9-9-9-|
D|7-7-x-7-7-10-10-12-12------12-----------------------|
A|----------------------------------------------------|
E|------------------------------0x--------------------|


e|8--8--x--8--8--7--7---------10-10-----7-7-x-7-7-5-5-------8-8--|
B|8--8--x--8--8--8--8---10-10-10-10-----8-8-x-8-8-7-7--8--8------|
G|9--9--x--9--9--9--9---11-11-------11--7-7-x-7-7-7-7--9--9-----9|
D|10-10-x--10-10--------12-12-------12--9-9-x-9-9-----10-10----10|
A|---------------------------------------------------------------|
E|---------------------------------------------------------------|


e|5-5-x-5-5-------------10-10-----7-7-7-7-7-7-7-7-7-10|
B|5-5-x-5-5--8--8-10-10-10-10-----8-8-8-8-8-8-8-8-8-8-|
G|5-5-x-5-5--9--9-11-11------11---9-9-9-9-9-9-9-9-9-9-|
D|7-7-x-7-7-10-10-12-12------12-----------------------|
A|----------------------------------------------------|
E|------------------------------0x--------------------|

[Solo]
                                                                    
e|---------------------------------------------------------------------------------|
B|------11^--11^(11)----8^~---7-7^-------------------------------------------------|
G|14\9---------------12-----------7-7/9--7^-----------------------------9h11p9-----|
D|------------------------------------------7^7-7^-5\4-----------------------------|
A|-----------------------------------------------------10\5-----7-7h9p7-------7h9p7|
E|----------------------------------------------------------5/9--------------------|

e|---------------------------------------------------------------------------------------|
B|5-5-5^--3-3-3^----------------------------------------------------------------15--17~~~|
G|------4-------4---4--4---------------------------------------------8---7---------------|
D|----------------5--------------5h7p5---5-4^-4^-5-7-5-4-7-5h7p5-4h5---5---5/12---14-----|
A|-----------------------5/9^9\7-------7-------------------------------------------------|
E|---------------------------------------------------------------------------------------|

[Chorus 2: Rhythm]

e|8--8--x--8--8--7--7---------10-10-----7-7-x-7-7-5-5-------8-8--|
B|8--8--x--8--8--8--8---10-10-10-10-----8-8-x-8-8-7-7--8--8------|
G|9--9--x--9--9--9--9---11-11-------11--7-7-x-7-7-7-7--9--9-----9|
D|10-10-x--10-10--------12-12-------12--9-9-x-9-9-----10-10----10|
A|---------------------------------------------------------------|
E|---------------------------------------------------------------|


e|5-5-x-5-5-------------10-10-----7-7-7-7-7-7-7-7-7-10|
B|5-5-x-5-5--8--8-10-10-10-10-----8-8-8-8-8-8-8-8-8-8-|
G|5-5-x-5-5--9--9-11-11------11---9-9-9-9-9-9-9-9-9-9-|
D|7-7-x-7-7-10-10-12-12------12-----------------------|
A|----------------------------------------------------|
E|------------------------------0x--------------------|


e|8--8--x--8--8--7--7---------10-10-----7-7-x-7-7-5-5-------8-8--|
B|8--8--x--8--8--8--8---10-10-10-10-----8-8-x-8-8-7-7--8--8------|
G|9--9--x--9--9--9--9---11-11-------11--7-7-x-7-7-7-7--9--9-----9|
D|10-10-x--10-10--------12-12-------12--9-9-x-9-9-----10-10----10|
A|---------------------------------------------------------------|
E|---------------------------------------------------------------|


e|5-5-x-5-5-------------10-10-----7-7-7-7-7-7-7-7-7-10|
B|5-5-x-5-5--8--8-10-10-10-10-----8-8-8-8-8-8-8-8-8-8-|
G|5-5-x-5-5--9--9-11-11------11---9-9-9-9-9-9-9-9-9-9-|
D|7-7-x-7-7-10-10-12-12------12-----------------------|
A|----------------------------------------------------|
E|------------------------------0x--------------------|



************************************

| x   Dead note
| h   Hammer-on
| p   Pull-off
| ^   Bend
| /   Slide up
| \   Slide down
| ~   Vibrato

************************************

            
            
Suggest correction
Creating personal tab
Creating personal tab
You can edit any tab online and save it as your Personal.

You can edit, replace or remove any tab part or add personal notes – all changes will be seen only by you.

Personal tabs can be accessed anytime from any device, even offline.
Learn more »
comments
print report bad tab
3 comments total.
+3 reply
Darklis 10 Jun 22, 2016 08:27 AM

After listening a few times i thin the first part of the riff is not 2/4 but 0h2/4 and after the 5-5 it is 0h2/4 again.
Could be wrong tho but sounds like that to me.

+1 reply
Red Hot Day 548 Jun 23, 2016 05:20 AM

Thank you. you're right!

0 reply
thejako 77 Jul 09, 2016 04:47 PM

I don't know how you can give a tab like this 4,5 stars...just saying

guest
You may want to rate the tab now too:
select rating
Wanna post a correction for this tab? Suggest correction