Oops, an error
Loading. Please wait.

Skinny Sweaty Man bass

version 4
version 4

Whole song

Interactive

4,406 views 3 this week
1 commentread comment
1 2 3 4 5
1 last vote to show rating
add to favorites
×
Save as Personal and add changes to this tab that will be seen only by you. Learn more ›
×
You can save this tab as Personal to edit and correct it or add notes. All changes will be seen only by you. Learn more »
launch autoscroll
font size
0
reset
guitar tuner
edit
Autoscroll
slow
fast
+/-
esc
set tempo
stop
Author
Difficulty
skinny sweaty man
red hot chili peppers
uplift mofo party plan
tabbed by ovalman24

                               

main riff

G|-----------------------0-------9|
D|------5-----5-------------------|
A|-5h7-----------5h7--0-----------|  x 8
E|----x---x------------------0----|
   s  s p s   p  s    s  p   s   p

extension 1

G|-7----6---------------------------------9|
D|----------9------7---------7-8-9---------|  
A|-----------------------10--------10-7----|   x 1
E|-----------------------------------------|



main riff

G|-----------------------0-------9|
D|------5-----5-------------------|
A|-5h7-----------5h7--0-----------|  x 8
E|----x---x------------------0----|
   s  s p s   p  s    s  p   s   p

extension 2

G|-7----6---------------------------------9--------------------------------|
D|----------9------7---------7-8-9-----------------------------------------|
A|-----------------------10--------10-7----------7----5---7--5-3----------5|
E|---------------------------------------------------------------5---3--5--|

G|--------------------------|
D|--------------------------|
A|-7----5----7--5--3--------|
E|-------------------5---3/-|

G|-------------------------------------7---7---9--7-----------------------------|
D|-----------------------------------9---9---9----------------------------------|
A|-7----5--7--7--5------5----7----5---------------------7----5---7--5----------3|
E|------------------5-8------------------------------------------------7--3--5--|

G|-----------------------------------------------------------------------------|
D|-----------------------------------------------------------------------------|
A|-7----5--x-5--3---------7----5---7------5--------3----7----5---7--5-3--------|
E|-----------------5--3---------------5-7------3-5----------------------5----3-|

main riff 

G|-----------------------0-------9|
D|------5-----5-------------------|
A|-5h7-----------5h7--0-----------|  x 8
E|----x---x------------------0----|
   s  s p s   p  s    s  p   s   p

extension 3

G|-7----6------------------------9|
D|----------9----7----7-8-9-------|
A|-----------------10-------10-7--|
E|--------------------------------|

this is all of it :D enjoy the funk rock we love from the master himself flea

            
            
Suggest correction
Creating personal tab
Creating personal tab
You can edit any tab online and save it as your Personal.

You can edit, replace or remove any tab part or add personal notes – all changes will be seen only by you.

Personal tabs can be accessed anytime from any device, even offline.
Learn more »
Give kudos to tab author, rate the tab!
1 2 3 4 5
comments
print report bad tab
1 comment total.
0 reply
Zado94 10 Jul 16, 2010 04:21 PM

great tab love the song
one thing i would change is in the main riff i pop the open g string rather than 5th fret d. its much easier for me that way but i geuss thats just my preferance

guest
You may want to rate the tab now too:
select rating
Wanna post a correction for this tab? Suggest correction